Soul Coughing - Super Bon Bon Chords & Tabs

 

Super Bon Bon Chords & Tabs

Soul Coughing Chords & Tabs

Version: 2 Type: Bass Tab 0 ratings
1 star 2 stars 3 stars 4 stars 5 stars
comments

Super Bon Bon Bass Tab

Super Bon Bon
from the album Irrisitible Bliss
written by Soul Coughing
tabbed by Kurt Zitzelman

I was just playing along with the CD and this is what I came up with.

verse
[ Tab from: http://www.guitartabs.cc/tabs/s/soul_coughing/super_bon_bon_btab_ver_2.html ]
G|------------------------------
D|----6-4b----------------------
A|-----------4-h6-4-------------  
E|-4-4--------------4-4-4-4\1---

chorus

G|------------------------------
D|----6-4b----------------------
A|---------4-6------------------
E|-4-4---------4-6--------------

Kurt Zitzelman ( k319z@hotmail.com )

______________________________________________________
Get Your Private, Free Email at http://www.hotmail.com
Comments