Soul Coughing - Idiot Kings Chords & Tabs

 

Idiot Kings Chords & Tabs

Soul Coughing Chords & Tabs

Version: 1 Type: Bass Tab 0 ratings
1 star 2 stars 3 stars 4 stars 5 stars
comments

Idiot Kings Bass Tab

   
Tabbed By : Cameron Carpenter
e-mail: basserC999 (at) gmail.com

Tuning: Standard (E A D G, low to high)

Intro:
      1 E + A 2 E + A 3 E + A 4 E + A    1 E + A 2 E + A 3 E + A 4 E + A         
G|-------------------------------------|------------------------------------|
D|------------------------------0------|------------------------------------|
A|----0-------0-----2-----2------------|------------------------------------|
E|-------------------------------------|-0-------0---x-3-----3---x-4--------|

Main Groove:  
      1 E + A 2 E + A 3 E + A 4 E + A    1 E + A 2 E + A 3 E + A 4 E + A         
G||------------------------------------|-----------------------------------||
D||.----------------------------0------|----------------------------------.||
A||.--0-------0---x-2-----2------------|----------------------------------.||
E||------------------------------------|-0-------0---x-3-----3---x-4-------||

Bridge:  "hmmm"
      1 E + A 2 E + A 3 E + A 4 E + A    1 E + A 2 E + A 3 E + A 4 E + A         
G||------------------------------------|------------------------------------|
D||------------------------------------|------------------------------------|
A||---0-------0-x-x-0-----0-----0------|---------------5-----5-----7--------|
E||------------------------------------|-3-------3-x-x----------------------|

      1 E + A 2 E + A 3 E + A 4 E + A    1 E + A 2 E + A 3 E + A 4 E + A         
G|----------------0h2-0h2--------------|------------------------------------|
D|-------------------------------------|------------------------------------|
A|----0-------0------------------------|---------------5-----5-----7--------|
E|-------------------------------------|-3-------3-x-x----------------------|
[ Tab from: http://www.guitartabs.cc/tabs/s/soul_coughing/idiot_kings_btab.html ]
      1 E + A 2 E + A 3 E + A 4 E + A    1 E + A 2 E + A 3 E + A 4 E + A         
G|-------------------------------------|------------------------------------|
D|-------------------------------------|------------------------------------|
A|----0-------0-x-x-0-----0-----0------|---------------5-----7-----7--------|
E|-------------------------------------|-3-------3--------------------------|


      1 E + A 2 E + A 3 E + A 4 E + A    1 E + A 2 E + A 3 E + A 4 E + A         
G|----------------0h2-0h2--------------|-----------------------------------||
D|-------------------------------------|-----------------------------------||
A|----0-------0------------------------|---------------0-----1-----2-------||
E|-------------------------------------|-3-------4-------------------------||

"Baby, can I change my mind?"
      1 E + A 2 E + A 3 E + A 4 E + A    1 E + A 2 E + A 3 E + A 4 E + A         
G||------------------------------------|-----------------------------------||
D||.-----------------------------------|----------------------------------.||
A||.--0-------2------------------------|----0-------2---------------------.||
E||-----------------0-----0-----0------|------------------3-----0-----0----||

Outro:
      1 E + A 2 E + A 3 E + A 4 E + A    1 E + A 2 E + A 3 E + A 4 E + A         
G|-------------------------------------|---------------0-----1-----2-gliss--|
D|------------------------------0------|------------------------------------|
A|----0-------0---x-2-----2------------|------------------------------------|
E|-------------------------------------|-0-------0--------------------------|

(Rubato)
G|--7--6--5---7--6--5--------------------------11\9---7-----7/9------------||
D|-----------4---------4-------------------7-------------9-----------------||
A|-------------------------/5---------5/7-------------------------7--------||
E|------------------------------5/7----------------------------------------||


Song Form:

Intro
Main Groove
Bridge
Main Groove
cut out
Bridge
Main Groove
"Baby, can I change my mind?"
cut out
Main Groove
Outro
Comments