Soul Asylum - Waiting By The Phone Chords & Tabs

 

Waiting By The Phone Chords & Tabs

Soul Asylum Chords & Tabs

Version: 2 Type: Tab 0 ratings
1 star 2 stars 3 stars 4 stars 5 stars
comments

Waiting By The Phone Tab

Author/Artist: Soul Asylum
Title: Waiting By the Phone
Transcribed by: Hamed Zahory (To my sexi bitch Amanda)
This should be pretty close compared to the other tabs (Point=There are no other tabs)
Key: ^=Natural Harmonic b=Bend r=return bend p=pull-off x=Palm Mute

----------------------|----------------------|--------------------------------|
----------------------|----------------------|--------------------------------|
----------------------|-5^-------5^----------|--------------------------------|
-4^-------4^-------5^-|----5^-5^----7^-7^-5^-|--------------------------------|
----5^-5^----7^-7^----|----------------------|--------------------------------|
----------------------|----------------------|--------------------------------|
 Guitar 1 Intro

----------------------|----------------------|--------------------------------|
----------------------|----------------------|--------------------------------|
-4-4-4-4-4-4-4-4-4-4--|-4-4-4-4-4-2-2-2-2-2--|--------------------------------|
-4-4-4-4-4-4-4-4-4-4--|-4-4-4-4-4-2-2-2-2-2--|--------------------------------|
-2-2-2-2-2-2-2-2-2-2--|-2-2-2-2-2-0-0-0-0-0--|--------------------------------|
----------------------|----------------------|--------------------------------|
 Guitar 2 Intro

-------------------------------------------------|----------------------------|
-------------------------------------------------|----------------------------|
-4-4-x-x-4-x-x-4-x-4-x-x-x-2-2-x-x-2-x-x-2-x-2-x-|----------------------------|
-4-4-x-x-4-x-x-4-x-4-x-x-x-2-2-x-x-2-x-x-2-x-2-x-|----------------------------|
-2-2-x-x-2-x-x-2-x-2-x-x-x-0-0-x-x-0-x-x-0-x-0-x-|----------------------------|
-------------------------------------------------|----------------------------|
 Guitar 1 Verse
[ Tab from: http://www.guitartabs.cc/tabs/s/soul_asylum/waiting_by_the_phone_tab_ver_2.html ]
-------------------------------------------------|----------------------------|
-------------------------------------------------|----------------------------|
-4-4-4-4-4-4-4-4-4-4-4-4-4-2-2-2-2-2-2-2-2-2-2-2-|----------------------------|
-------------------------------------------------|----------------------------|
-2-2-2-2-2-2-2-2-2-2-2-2-2-0-0-0-0-0-0-0-0-0-0-0-|----------------------------|
-------------------------------------------------|----------------------------|
 Guitar 2 Verse

---5----------5----------5----------5------------|----------------------------|
-----3----------3----------3----------3----------|----------------------------|
-2----------2----------2----------2--------------|----------------------------|
-------------------------------------------------|----------------------------|
-------------------------------------------------|----------------------------|
-------------------------------------------------|----------------------------|
 Guitar 1 Chorus

-------------------------------------------------|----------------------------|
-------------------------------------------------|----------------------------|
-9-9-9-9-9-9-9-9-9-9-9-9-7-7-7-7-7-7-7-7-7-7-7-7-|----------------------------|
-9-9-9-9-9-9-9-9-9-9-9-9-7-7-7-7-7-7-7-7-7-7-7-7-|----------------------------|
-7-7-7-7-7-7-7-7-7-7-7-7-5-5-5-5-5-5-5-5-5-5-5-5-|----------------------------|
-------------------------------------------------|----------------------------|
 Guitar 2 Chorus+Solo

---------7b9r7---------7p5-7p5-7p5-7p5-9p5-7p5-8p5-7p5-8p5-7p5-7p5-|----------|
---------------7-5b6r5---------------------------------------------|----------|
-------7-----------------------------------------------------------|----------|
---7-5-------------------------------------------------------------|----------|
-5-----------------------------------------------------------------|----------|
-------------------------------------------------------------------|----------|
 Guitar 1 Solo

-----------------------------------------------|------------------------------|
-----------------------------------------------|------------------------------|
-----------------------------------------------|------------------------------|
-5-5-5-5-5-5-5-5-5-5-5-5-7-7-7-7-7-7-5-5-5-5-5-|------------------------------|
-5-5-5-5-5-5-5-5-5-5-5-5-7-7-7-7-7-7-5-5-5-5-5-|------------------------------|
-7-7-7-7-7-7-7-7-7-7-7-7-5-5-5-5-5-5-3-3-3-3-3-|------------------------------|
 Guitar 1+2 Interlude
Comments