Soul Asylum - Runaway Train Chords & Tabs

 

Runaway Train Chords & Tabs

Soul Asylum Chords & Tabs

Version: 1 Type: Bass Tab 0 ratings
1 star 2 stars 3 stars 4 stars 5 stars
comments

Runaway Train Bass Tab

Song: Runaway Train 
Artist: Soul Asylum 
Album: 
Tabbed by: Russ Richey (cbr600f4r@aol.com) 
Member of the Bass Tab Army 
http://www.basstabarchive.com/ 


Here's the majority of it.  he throws  a couple octave accents 
in it occasionally.   For the most part it's a simple song.   
Play On! 

INTRO 

G|-------------------------------------| 
D|-------------------------------------| 
A|-3--3-3--3--3-3----3--3-3--3--3-3--3-| 
E|----------------3-----------------3--| 
B|-------------------------------------| 



Verse 

G|----------------------------------| 
D|----------------------------------| 
A|-3--3-3---3--3-3---2--2-2--2--2-2-| 
E|----------------------------------| 
B|----------------------------------| 


G|-----------------------------------| 
D|-----------------------------------| 
A|-----------------------------------| 
E|-5--5-5---5--5-5---3--3-3---3--3-3-| 
B|-----------------------------------| 

BRIDGE 
[ Tab from: http://www.guitartabs.cc/tabs/s/soul_asylum/runaway_train_btab.html ]
G|---------------------------------------------------------------| 
D|---------------------------------------------------------------| 
A|-------------------3--3-3-2------------------------------------| 
E|-1--1-1---3--3-3-------------5--5-5---1--1-1---0--0-0---3--3-3-| 
B|---------------------------------------------------------------| 


G|-------------| 
D|-------------| 
A|-------------| 
E|-3-3---3-3-5-| 
B|-------------| 

Chorus 

G|----------------------------------| 
D|-------------------2--2-2--2--2-2-| 
A|-3--3-3---3--3-3------------------| 
E|----------------------------------| 
B|----------------------------------| 


G|-----------------------------------| 
D|-----------------------------------| 
A|-----------------------------------| 
E|-5--5-5---5--5-5---3--3-3---3--3-3-| 
B|-----------------------------------| 

Fill1 

G|----------------------------------| 
D|----------------------------------| 
A|-----------------------5-7--5-2-3-| 
E|-3--3-3--3--3-3-3-3 --------------| 
B|----------------------------------| 

Comments