Soul Asylum - Cartoon Chords & Tabs

 

Cartoon Chords & Tabs

Soul Asylum Chords & Tabs

Version: 1 Type: Tab 0 ratings
1 star 2 stars 3 stars 4 stars 5 stars
comments

Cartoon Tab

   
##################################################################################
# This file is the author's own work and represents their interpretation of the  #
# song. You may only use this file for private study, scholarship, or research.  #
##################################################################################
From: TJGriffey@aol.com
Date: Tue, 23 Jan 1996 23:55:34 -0500
Subject: cartoon.crd soul_asylum

I have had a lot of requests for this song in particular.  This could be one
of their best songs and it is written by Dan Murphy. If you have any
comments/suggestions please email me at: TJGriffey@aol.com.

Song: Cartoon
Band: Soul Asylum
Album: Hangtime

Intro
Riff A
Guitar 1
e|----------------------------||           ||-------------------------||
B|----------------------------||           ||-------------------------||
G|----------------------------||   X3      ||---------------/4--/5----||   X1
D|----/5--4--0--2-------------||           ||-----/5--/7--------------||
A|-------------------3--------||           ||-------------------------||

Guitar 2
e|--3----3----3----3----3----0----0----0----0----
B|---3----3----3----3----3----1----1----1----1---
G|----0----0----0----0----0----0----0----0----0--

You can either pick the individual notes for this part or strum the G and C
chord formations.

Verse 1:

D   G   F#(single note)   Em  C  D  G
======================================

Riff A

Verse 2
[ Tab from: http://www.guitartabs.cc/tabs/s/soul_asylum/cartoon_tab.html ]
Bridge
Riff A

Verse 3

Solo (same as Riff A but in a different position)

Riff A


****************************************************************************************************

****************************************************************************************************


Closer To The Stars by Soul Asylum

(originally on While You Were Out; 
 acoustic version taken from
 the black Black Gold single)

   Bm A  E  G  D  CG A* DC DG
e -2--0--0--3--2--3--2--3--3------
B -3--2--0--3--3--3--2--1--3------
G -4--2--1--0--2--0--2--2--2------
D -4--2--2--0--0--2--4--0--0------

A -2--0--2--1--x--3--x--x--x------
E -x--x--0--2--x--x--x--x--x------

Bm A E

[ tab by Erick Rudiak / erude@ambient.acns.nwu.edu ]
****************************************************************************************************

****************************************************************************************************

Runaway Train - Soul Asylum

E|----------------------------------------------
B|-----5---5----5------3--3----3-----1--1-------
G|----------------------------------------------
D|--5----5---5-----5s3---3--3----3s2--2----2h3-2
A|----------------------------------------------
E|---------------------------------------------- Intro riff


C - Cadd2/B - Am - G   x2 (then fade) 

C x32010
Cadd2/Bx20010
Am x02210
G320003
Fx03211
Em022000

Tabbed by Ed Montano
Comments