Soul Asylum - Black Gold Chords & Tabs

 

Black Gold Chords & Tabs

Soul Asylum Chords & Tabs

Version: 1 Type: Tab 1 rating
1 star 2 stars 3 stars 4 stars 5 stars
comments

Black Gold Tab

   
#----------------------------------PLEASE NOTE---------------------------------#
#This file is the author's own work and represents their interpretation of the #
#song. You may only use this file for private study, scholarship, or research. #
#------------------------------------------------------------------------------#

Black Gold - Soul Asylum


intro:   -----------------------------2----2------2-------
         -----------------------------3------3------3-----
         ----------0-----0-----0------2--------2------2---
         --------2-----0-----0--------0-------------------
         --0-2-3-----2-----0------------------------------
         -------------------------------------------------

     Play this simple little one twice after the intro.
     
    ----10-----9---7----5---5--3--3--3------2--------------
    ----10----10---8----7---5--3--3----2----3--------------
    --11----11--------9-------------------3----------------
    -------------------------------------------------------
    -------------------------------------------------------
    -------------------------------------------------------


[ Tab from: http://www.guitartabs.cc/tabs/s/soul_asylum/black_gold_tab.html ]
    G     D5    G
  --3--3---x----3----x--------------------------------- 
  --0--0---3----0----3---------------------------------  
  --0--0---2----0----2-----------------------7---------
  --0--0---0----0----0-----------------------7---------
  --2--2---0----2----0----0-2-3-2-0-2-5-5-5--5---------
  --3--3--------3--------------------------------------
Please note: the D5 chord i have is a substitute for the
actual power chord (x577xx) i found it easier to play in
the progression when playing the song straight though.
this is just an editors note i guess. :-)  




-2--0--2--3--0--2----5-3--3---3---2----------------------------
-3--3--3--3--3--3----3-3--3---3---3----------------------------
----------------------------2-------2--------------------------
---------------------------------------------------------------
---------------------------------------------------------------
---------------------------------------------------------------

this is the verse. sounds just like the words, so you'll get it
pretty easy. :-)


 
     C            Em                         
----0----3-0-----0----3-0---------------------
----1--1-----1---0--0-----0-------------------
----0------------0----------------------------
----2------------2-------------7--7--7--------
----3------------2-------------7--7--7--------
-----------------0-------------5--5--5--------
Mother, do you know where your kids are tonite

blah blah blah.. this is the basic idea of the song
i didn't transcribe the solo becuase it's too hard to hear
becuase of the sound effects.
any additions, or anything are welcome, and before you post it
please e-mail me, i want to learn to play this one perfectly 
too :) - AND COME ON PEOPLE! LET'S GET THIS SOUL ASYLUM ARCHIVE
GOING! :)
Comments