Sotaisei Riron - Jinkou Eisei Chords & Tabs

 

Jinkou Eisei Chords & Tabs

Sotaisei Riron Chords & Tabs

Version: 1 Type: Bass Tab 0 ratings
1 star 2 stars 3 stars 4 stars 5 stars
comments

Jinkou Eisei Bass Tab

1

G|-------------------------------------|
D|-------------------------2---4-2-----|
A|-4--2--4---023-4--2--4-4---4-----4-2-|
E|-------------------------------------|

G|---------------------------------|
D|---------------------------------|
A|---------------------6---7-6-----|
E|-5--4--5/-\7--5--7-7---7-----7-5-|

repeat above

2

G|-------------------------------------|
D|-----------------------------4-2-----|
A|-4--2--4-------4--2--4-----------4-2-|
E|-------------------------------------|

G|---------------------------------|
D|---------------------------------|
A|---------------------6---7-6-----|
E|-5--4--5/-\7--5--7-7---7-----7-5-|

G|----6/8----9/11-----|
D|--------------------|
A|-4------7---------2-| x2
E|----------------4---|

G|---------------------------------|
D|-7----------------------9/11-9---|
A|----7-------------6--9---------9-|
E|-------5-4-5-6-7-----------------|

3

G|----------------------------------------|
D|----------------------------------------|
A|-------7--6h7-7-7-7-6-------------------| 1,3
E|-5--4-----------------7--6h7-9-7h9-99-7-|

G|---------------------------------------------|
D|---------------------------------------------|
A|-------7--6h7-7-7-7-6------------------------| 2,4
E|-5--4-----------------7--6h7-9-9-9-9-9-9-9-9-|

repeat 1 + 2
[ Tab from: http://www.guitartabs.cc/tabs/s/sotaisei_riron/jinkou_eisei_btab.html ]
G|----------------------------------------|
D|----------------------------------------|
A|-------7--6h7-7-7-7-6-------------------| 1,3
E|-5--4-----------------7--6h7-9-7h9-99-7-|

G|---------------------------------------------|
D|---------------------------------------------|
A|-------7--6h7-7-7-7-6------------------------| 2
E|-5--4-----------------7--6h7-9-9-9-9-9-9-9-9-|

G|---------------------------------------|
D|---------------------------------------|
A|-------7--6h7-7-7-7-6------------6-7-9-| 4 
E|-5--4-----------------7--6h7-7h9-------|

G|---------------------------------------|
D|-7--6----------------------------------|
A|-------7-7-7-7-------------------------| 5,6,7,8
E|---------------7--6h7-9--9-9-9-9-9-9-9-|

G|----------------------------------------------------------|
D|----------------------------------------------------------|
A|-----------------7-7-7-7-7-7-7----------------------------|
E|-5-5-5-5-5-5-5-5---------------7-7-7-6h77-9-9-9-9-9-9-9-9-|

G|----------------------------------------------------------|
D|----------------------------------------------------------|
A|-----------------7-7-7-7-7-7-7----------------6-6-7-6-----|
E|-5-5-5-5-5-5-5-5---------------7-7-7-6h77-9-9---------9-7-|

G|----------------------------------------------------------|
D|----------------------------------------------------------|
A|-----------------7-7-7-7-7-7-7----------------------------| x2
E|-5-5-5-5-4-5-5-5---------------7-7-7-6h77-9-9-9-9--99-9-9-|
Comments