Sotaisei Riron - Cinderella Theory Of Relativity Chords & Tabs

 

Cinderella Theory Of Relativity Chords & Tabs

Sotaisei Riron Chords & Tabs

Version: 1 Type: Bass Tab 0 ratings
1 star 2 stars 3 stars 4 stars 5 stars
comments

Cinderella Theory Of Relativity Bass Tab

   
https://www.facebook.com/soutaiseiriron?fref=ts

G|----------------------------------------------------|
D|----------------------------------------------------|
A|-7--7-9-9--------5-5----------7--7-9-9--------------|
E|-----------7--7------(7)-5-7------------7--7-7-5--5-|

G|--------------------------------------------------------|
D|--------------------------------------------------------|
A|-7--7-9-9--------5-5----------7--7-9-9------------------|
E|-----------7--7------(7)-5-7------------7--7--7-5-5-7-7-|

G|--------------------------------------------------------------|
D|--------------------------------------------------------------|
A|-7--7-(7)-9--9----------5-5-4-5-7--7-(7)-9--9-----------------|
E|---------------7--7-(7)-----------------------7--7-(7)-5-5-7--|

G|---------------------------------------------------------------|
D|---------------------------------------------------------------|
A|-7--7-(7)-9--9----------5-5-4-5-7--7-(7)-9--9------------------|
E|---------------7--7-(7)-----------------------7--7-(7)-5-5-7-7-|

repeat all of above, but on the last four notes play this

G|---------|
D|---------|
A|---------|
E|-7-7-5-5-|

G|----------------------------------------------------------------|
D|----------------------------------------------------------------|
A|-----------------2-2-22-5-2---------------------2-0-------2-5-0-| x2
E|-3--3-33-5-5-3-5------------5-2-3--3-33-5-5-3-5-----3-5-2-------|

G|-----------------------------------------------------------|
D|-----------------------------------------------------------|
A|---------------2--2-2-5-4-52------------------2--2-0-2--2--| x2
E|-3--3-3-5--5-5--------------5-3--3-3-5--5-5----------------|

G|----------------------------------------------------|
D|----------------------------------------------------|
A|-7--7-9-9--------5-5----------7--7-9-9--------------|
E|-----------7--7------(7)-5-7------------7--7-7-5--5-|
[ Tab from: http://www.guitartabs.cc/tabs/s/sotaisei_riron/cinderella_theory_of_relativity_btab.html ]
G|--------------------------------------------------------|
D|--------------------------------------------------------|
A|-7--7-9-9--------5-5----------7--7-9-9------------------|
E|-----------7--7------(7)-5-7------------7--7--7-5-5-7-7-|

G|--------------------------------------------------------------|
D|--------------------------------------------------------------|
A|-7--7-(7)-9--9----------5-5-4-5-7--7-(7)-9--9-----------------|
E|---------------7--7-(7)-----------------------7--7-(7)-5-5-7--|

G|---------------------------------------------------------------|
D|---------------------------------------------------------------|
A|-7--7-(7)-9--9----------5-5-4-5-7--7-(7)-9--9------------------|
E|---------------7--7-(7)-----------------------7--7-(7)-7-7-5-5-|

G|----------------------------------------------------------------|
D|----------------------------------------------------------------|
A|-----------------2-2-22-5-2---------------------2-0-------2-5-0-| x2
E|-3--3-33-5-5-3-5------------5-2-3--3-33-5-5-3-5-----3-5-2-------|

G|-----------------------------------------------------------|
D|-----------------------------------------------------------|
A|---------------2--2-2-5-4-52------------------2--2-0-2--2--| x2
E|-3--3-3-5--5-5--------------5-3--3-3-5--5-5----------------|

G|--------------------------------|
D|--------------------------------|
A|---------------20-02-22-2-2-202-| x3
E|-3-3--3-5-5--5---3--------------|

G|--------------------------------|
D|--------------------------------|
A|---------------20-02-22-2-2-2-5-| 
E|-3-3--3-5-5--5---3--------------|

G|-------------------------------------------------11-9----|
D|------------------------------------------------------11-|
A|--------------2-2-22-5-2------------------2-2-22---------|
E|-3-3-33-5-5-5------------5-2-3-3-33-5-5-5----------------|

G|----------------------------------------------------------------|
D|----------------------------------------------------------------|
A|--------------2-2-2-5-4-52---------------2-2---222-4-5-7--------|
E|-3-3-33-5-5-5-------------5-3-3-33-5-5-5------------------------|
Comments