Sort Sol - Let Your Fingers Do The Walking Chords & Tabs

 

Let Your Fingers Do The Walking Chords & Tabs

Sort Sol Chords & Tabs

Version: 3 Type: Tab 0 ratings
1 star 2 stars 3 stars 4 stars 5 stars
comments

Let Your Fingers Do The Walking Tab

   
Artist: Sort Sol
Song: Let your fingers do the walking
Tabbed by Magnus Stein, nov. 14, 04
Comments: magnusstein90@hotmail.com

I listened to the record, and wrote this, note by note, and I'm 100% positive, that it is perfectly correct.

Intro:

   D       Dsus D    A       G
e|--2---2---3---2--|----5-------3---|
B|---3---3---3---3-|---5-5-----3-3--|
G|----2---2---2---2|--6---6---4---4-|
D|-----------------|-7-------5------|
A|-----------------|----------------|
E|-----------------|----------------|

   D        Dsus    A       G
e|--2---2---3---2--|----5----3--3---|
B|---3---3---3---3-|---5-5----3--3--|
G|----2---2---2---2|--6---6----4--4-|
D|-----------------|-7--------------|
A|-----------------|----------------|
E|-----------------|----------------|

    Bm      A       D                              
e|-----2-------0--|-----2-----2-----|   
B|----3-3-----2-2-|----3-3---3-3----|    
G|-------4-------2|---2---2-2---2---|X2
D|---4-------2----|--0-----0-----0--|
A|--2-------0-----|-----------------|    
E|----------------|-----------------|    

   G       A        D      Dsus  D
e|-----3------0---|----2----3---2---|
B|----3-3----2-2--|---3-3----3---3--|
G|---0---0------2-|--2---2----2---2-|
D|----------2-----|-0-----0---------|
A|---------0------|-----------------|
E|--3-------------|-----------------|

   Bm      A          D                              
e|-----2-------0---|----2------2----|  
B|----3-3-----2-2--|---3-3----3-3---|   
G|-------4-------2-|--2---2--2---2--|
D|---4-------2-----|-0------0-----0-|
A|--2-------0------|----------------|   
E|-----------------|----------------|   


1st verse

   Bm      A       D                              
e|-----2-------0--|-----2-----2-----|   
B|----3-3-----2-2-|----3-3---3-3----|    
G|-------4-------2|---2---2-2---2---|X2
D|---4-------2----|--0-----0-----0--|
A|--2-------0-----|-----------------|    
E|----------------|-----------------|    
There is a liquid sky all over the world
Tonight it comes for your body, it comes to set your soul alight
   G       A        D      Dsus D
e|-----3------0---|----2----3---2---|
B|----3-3----2-2--|---3-3----3---3--|
G|---0---0------2-|--2---2----2---2-|
D|----------2-----|-0-----0---------|
A|---------0------|-----------------|
E|--3-------------|-----------------|
the cards have been dealt from our hands they will melt

   Bm      A       D                              
e|-----2-------0--|-----2-----2-----|   
B|----3-3-----2-2-|----3-3---3-3----|    
G|-------4-------2|---2---2-2---2---|
D|---4-------2----|--0-----0-----0--|
A|--2-------0-----|-----------------|    
E|----------------|-----------------|
There is a liquid   sky all over the world

Chorus:

    Bm     G        Bm     A
e|-----2-------3---|----2------0----|
B|----3-3-----3-3--|---3-3----2-2---|
G|-------4-------0-|------4------2--|
D|---4-------0-----|--4------2------|
A|--2--------------|-2------0-------|
E|----------3------|----------------|
   Tonight_________________________

       Bm     G      A
e|------2------3---|----0-------0---|
B|-----3-3----3-3--|---2-2-----2-2--|
G|--------4------0-|------2-------2-|
D|----4------0-----|--2-------2-----|
A|--2--------------|-0-------0------|
E|----------3------|----------------|

    Bm     G        Bm     A
e|-----2-------3---|----2------0----|
B|----3-3-----3-3--|---3-3----2-2---|
G|-------4-------0-|------4------2--|
D|---4-------0-----|--4------2------|
A|--2--------------|-2------0-------|
E|----------3------|----------------|

       Bm     G      A
e|------2------3---|----0-------0---|
B|-----3-3----3-3--|---2-2-----2-2--|
G|--------4------0-|------2-------2-|
D|----4------0-----|--2-------2-----|
A|--2--------------|-0-------0------|
E|----------3------|----------------|

2nd verse

   Bm      A       D                              
e|-----2-------0--|-----2-----2-----|   
B|----3-3-----2-2-|----3-3---3-3----|    
G|-------4-------2|---2---2-2---2---|X2
D|---4-------2----|--0-----0-----0--|
A|--2------0------|-----------------|    
E|----------------|-----------------| 
Step out my sweet one, and hang loose
Chrystal cherry grapes filled who to choose
[ Tab from: http://www.guitartabs.cc/tabs/s/sort_sol/let_your_fingers_do_the_walking_tab_ver_3.html ]
   G       A        D      Dsus D
e|-----3------0---|----2----3---2---|
B|----3-3----2-2--|---3-3----3---3--|
G|---0---0------2-|--2---2----2---2-|
D|----------2-----|-0-----0---------|
A|---------0------|-----------------|
E|--3-------------|-----------------|
With the moon rolling in, we can let our dream begin

   Bm      A       D                              
e|-----2-------0--|-----2-----2-----|   
B|----3-3-----2-2-|----3-3---3-3----|    
G|-------4-------2|---2---2-2---2---|
D|---4-------2----|--0-----0-----0--|
A|--2-------0-----|-----------------|    
E|----------------|-----------------|
Step out my sweet one, step out and hang loose

   D       Dsus D    A       G
e|--2---2---3---2--|----5-------3---|
B|---3---3---3---3-|---5-5-----3-3--|
G|----2---2---2---2|--6---6---4---4-|
D|-----------------|-7-------5------|
A|-----------------|----------------|
E|-----------------|----------------|

   D        Dsus    A       G
e|--2---2---3---2--|----5----3--3---|
B|---3---3---3---3-|---5-5----3--3--|
G|----2---2---2---2|--6---6----4--4-|
D|-----------------|-7--------------|
A|-----------------|----------------|
E|-----------------|----------------|

3rd verse

   Bm      A       D                              
e|-----2-------0--|-----2-----2-----|   
B|----3-3-----2-2-|----3-3---3-3----|    
G|-------4-------2|---2---2-2---2---|X2
D|---4-------2----|--0-----0-----0--|
A|--2-------0-----|-----------------|    
E|----------------|-----------------| 
Our liquid sky turns me on
Speak out my name, long after I'm gone

   G       A        D      Dsus D
e|-----3------0---|----2----3---2---|
B|----3-3----2-2--|---3-3----3---3--|
G|---0---0------2-|--2---2----2---2-|
D|----------2-----|-0-----0---------|
A|---------0------|-----------------|
E|--3-------------|-----------------|
So I give myself in, and it'll make me spin and spin

   Bm      A       D                              
e|-----2-------0--|-----2-----2-----|   
B|----3-3-----2-2-|----3-3---3-3----|    
G|-------4-------2|---2---2-2---2---|
D|---4-------2----|--0-----0-----0--|
A|--2-------0-----|-----------------|    
E|----------------|-----------------|
Our liquid sky turns me on

Chorus:

    Bm     G        Bm     A
e|-----2-------3---|----2------0----|
B|----3-3-----3-3--|---3-3----2-2---|
G|-------4-------0-|------4------2--|
D|---4-------0-----|--4------2------|
A|--2--------------|-2------0-------|
E|----------3------|----------------|
   Tonight_________________________

       Bm     G      A
e|------2------3---|----0-------0---|
B|-----3-3----3-3--|---2-2-----2-2--|
G|--------4------0-|------2-------2-|
D|----4------0-----|--2-------2-----|
A|--2--------------|-0-------0------|
E|----------3------|----------------|


    Bm     G        Bm     A
e|-----2-------3---|----2------0----|
B|----3-3-----3-3--|---3-3----2-2---|
G|-------4-------0-|------4------2--|
D|---4-------0-----|--4------2------|
A|--2--------------|-2------0-------|
E|----------3------|----------------|
  Let your fingers  do the walking

    Bm     G         A
e|------2------3---|----0-------0---|
B|-----3-3----3-3--|---2-2-----2-2--|
G|--------4------0-|------2-------2-|
D|----4------0-----|--2-------2-----|
A|--2--------------|-0-------0------|
E|----------3------|----------------|
Can't you see    I'm coming

Outro:

    Bm     G        Bm     A
e|-----2-------3---|----2------0----|
B|----3-3-----3-3--|---3-3----2-2---|
G|-------4-------0-|------4------2--|
D|---4-------0-----|--4------2------|
A|--2--------------|-2------0-------|
E|----------3------|----------------|
  Let your fingers  do the walking

       Bm     G      A
e|------2------3---|----0-------0---|
B|-----3-3----3-3--|---2-2-----2-2--|
G|--------4------0-|------2-------2-|
D|----4------0-----|--2-------2-----|
A|--2--------------|-0-------0------|
E|----------3------|----------------|

    Bm     G        Bm     A
e|-----2-------3---|----2------0----|
B|----3-3-----3-3--|---3-3----2-2---|
G|-------4-------0-|------4------2--|
D|---4-------0-----|--4------2------|
A|--2--------------|-2------0-------|
E|----------3------|----------------|

       Bm     G      A
e|------2------3---|----0-------0---|
B|-----3-3----3-3--|---2-2-----2-2--|
G|--------4------0-|------2-------2-|
D|----4------0-----|--2-------2-----|
A|--2--------------|-0-------0------|
E|----------3------|----------------|

  Bm
e|-----------------|
B|--------3--------|
G|------4----------|
D|----4------------|
A|--2--------------|
E|----------3------|
Comments