Sort Sol - Let Your Fingers Do The Walking Chords & Tabs

 

Let Your Fingers Do The Walking Chords & Tabs

Sort Sol Chords & Tabs

Version: 1 Type: Tab 2 ratings
1 star 2 stars 3 stars 4 stars 5 stars
comments

Let Your Fingers Do The Walking Tab

A really great piece of music from one of Denmark`s great rock-bands

First play this part 2 times:

e-2-----2-----3-----2-----0-----0-----3-----3------------------------
b---3-----3-----3-----3-----2-----2-----0-----0----------------------
g-----2-----2-----2-----2-----2-----2-----0-----0--------------------
d--------------------------------------------------------------------
a--------------------------------------------------------------------
E--------------------------------------------------------------------

Then play this part:
[ Tab from: http://www.guitartabs.cc/tabs/s/sort_sol/let_your_fingers_do_the_walking_tab.html ]
e-------2-----------2-----------3-----------0-----------0------------
b-----3---3-------3---3-------3---3-------2---2-------2---2----------
g---2-------2---2-------2---2-------2---2-------2---2-------2--------
d-0-----------0-----------0-----------0-----------0-----------0------
a--------------------------------------------------------------------
E--------------------------------------------------------------------

e-----3-----------3--------------------------------------------------
h---0---0-------0---0------------------------------------------------
g-0-------0---0-------0----------------------------------------------
d-----------0--------------------------------------------------------
a--------------------------------------------------------------------
E--------------------------------------------------------------------

Looks simple? it is... and sounds beautiful...Good for getting stoned
or drunk with the gang...
Take care...

"oh, man. You have no idea how BACK rock is!"
The guitarist from Audioslave/Rage against the machine.
Comments