Sorrenti Alan - Figli Delle Stelle [intro] Chords & Tabs

 

Figli Delle Stelle [intro] Chords & Tabs

Sorrenti Alan Chords & Tabs

Version: 1 Type: Tab 1 rating
1 star 2 stars 3 stars 4 stars 5 stars
comments

Figli Delle Stelle [intro] Tab

This song has a pretty intro and then it plays with chords... I submit only the intro (I think it's right).
The intro is not very difficultly.

e---12p--1212p--1212p--------15---------
B----------------------13s15----15------
G---------------------------------------
D---------------------------------------
A---------------------------------------
E---------------------------------------


e----12p--1212p--1212p------------------
B----------------------------12h14------
G----------------------11h13------------
D---------------------------------------
A---------------------------------------
E---------------------------------------



e---12p--1212p--1212p--------15------12-
B----------------------13s15----15------
G---------------------------------------
D---------------------------------------
A---------------------------------------
E---------------------------------------


[ Tab from: http://www.guitartabs.cc/tabs/s/sorrenti_alan/figli_delle_stelle_intro_tab.html ]
e---------------------------------------
B--------------14----------14-----------
G---11--13p11------13--11---------------
D---------------------------------------
A---------------------------------------
E---------------------------------------




e---12p--1212p--1212p--------15---------
B----------------------13s15----15------
G---------------------------------------
D---------------------------------------
A---------------------------------------
E---------------------------------------




e--12p--1212p--1212p--------------------
B----------------------12---14----12h15-
G--------------------11---11---11-------
D---------------------------------------
A---------------------------------------
E---------------------------------------





e---12p--1212p--1212p--------15---------
B----------------------13s15----15------
G---------------------------------------
D---------------------------------------
A---------------------------------------
E---------------------------------------




e-----------12~-----15~-----19~---------
B---------------------------------------
G---------------------------------------
D---------------------------------------
A---------------------------------------
E---------------------------------------


ThAt'S aLl FoLkS!
Comments