Sordromo - Como Un Sueno Chords & Tabs

 

Como Un Sueno Chords & Tabs

Sordromo Chords & Tabs

Version: 1 Type: Tab 0 ratings
1 star 2 stars 3 stars 4 stars 5 stars
comments

Como Un Sueno Tab

   
#----------------------------------PLEASE NOTE--------------------------------#
#This file is the author's own work and represents their interpretation of the#
#song. You may only use this file for private study, scholarship, or research.#
#-----------------------------------------------------------------------------#


Artist: Sórdromo
Album: Salvando la distancia (2001/2)
Tabbed by: Mauricio Galeano (galedut@adinet.com.uy)

Chords:

Am: x02210
C: 032010
G: 320033
Dm:557765
F: 133211

Fill#1

He repeat this twice

E--------------------------------------------------------------------
B--------------------------------------------------------------------
G--------------------------------------------------------------------
D-------------77777-5--77777 5---------------------------------------------------
A----77777-5--------------------8-------------------------------------------
E--------------------------------------------------------------------

Am               C          G
  La mañana la pasé soñando fútiles
Am                      C          G
  intentos por reconstruir sueños inútiles
Dm      F          C        G7             Dm
  Pero sigo sin saber si estoy realmente aquí
       F           C     G7
  o es solo la ilusión de un intento


  en la tarde me levanté queriendo investigar
  de la vida y el café que enfría si no apurás
  pero sigo sin poder pararme sin caer
  y yo sigo sin querer quedarme solo

[ Tab from: http://www.guitartabs.cc/tabs/s/sordromo/como_un_sueno_tab.html ]
Estribillo:
Am         F
  como un sueño
         C                G   
  que se pasa la vida buscando un dueño
Am         F
  son los días
      C                      G 
  que pasa en la esquina cargando mi vida

BIS


  cada noche en mi ciudad con puertas cerrándose
  y yo me vengo a desayunar con luces guiándome
  pero sigo sin saber si estoy realmente aquí
  o es solo la ilusión de un intento

Estribillo  x 2

Solo x 2

  pero sigo sin poder pararme sin caer
  y yo sigo sin querer quedarme solo

Estribillo  x 2

  pero sigo sin poder pararme sin caer
  y yo sigo sin querer quedarme solo

Estribillo  x 2


Solo:

E----------------------------------------------------------------------------------------
B-----------------------------3--5---5---3--------------3-5--5---3-----3-----5-----------
G----7-4-4--7-4-7-5-----2---5--------------------2---5---------------------2------------0
D----------------------------------------------------------------------------------------
A----------------------------------------------------------------------------------------
E----------------------------------------------------------------------------------------

E----------------------------------------------------------------------------------------
B----------------------------------------------------------------------------------------
G----------------------------------------------------------------------------------------
D---7--4-4-7-4-7-5-----------------------------------------------------------------------
A----------------------------------------------------------------------------------------
E----------------------------------------------------------------------------------------



Comments