Sor Fernando - Opus 35 Ex Chords & Tabs

 

Opus 35 Ex Chords & Tabs

Sor Fernando Chords & Tabs

Version: 1 Type: Tab 0 ratings
1 star 2 stars 3 stars 4 stars 5 stars
comments

Opus 35 Ex Tab

This is one of Fernando Sor's most beautiful works.
It must be played softly and slowly. I reccomend it to be played
with no distortion or with an acoustic or Spanish guitar. Hope you enjoy it.


1|-----------------------------------------------------0--0--0--1--2--3--1--0----
2|---5--5--5----3--1--1--0----6--6--6----5--3--3--1----------1-----1--0-----1----
3|---5-----5----4--2--2--1----7-----7----5--4--4--2----------2-----1--0-----2----
4|-------------------------------------------------------------------------------
5|---------0----------0-------------0----------0---------------------------------
6|-------------------------------------------------------------------------------
[ Tab from: http://www.guitartabs.cc/tabs/s/sor_fernando/opus_35_ex_tab.html ]
1|---0----------------0--0----------------3-----------------------1--1--1--1--1--1-
2|------3--1--0--1----5--5--5--5--5----------3--3--3--3--3--3-----------------0----
3|---2-----0----------------5--5--5--5----4-----------3--3--3--3--2--2-----2-----2-
4|---3-----2--0--2---------------------------------------------------3-----0-----0-
5|---------------3----------3-----3-------------------1-----1----------------------
6|------------3---------------------------3----------------------1-----------------

1|---0-----0-----------------------0----------------------------1--1---------------
2|------0-----3----3^1--0--1----3----------5--5--5--3--1--1--0--2------------------
3|---1-----1---------2----------2--1-------------5--4--2--2--1---------------------
4|---2--------------------------------2--------------------------------------------
5|-----------------------------------------------0--------0------------------------
6|---------0---------1----------1--0-----------------------------------------------

1|---0-1-3^1--0-----------0--0--1--2--2--3----4-----5----3--1----0------------------
2|---------3--1--3--3--1--1>>>>>1--1--1--0----3----------5--3----1--3--1--0---------
3|---------------4--4--2--2>>>>>2--------0----------5---------------4--2--1-----2---
4|---------------------------------0----------2--2--3----0-------2------------------
5|------------------0-----------------------------------------------------------0---
6|---------0--------------------------------------------------------------0---------
Comments