Sons Of Freedom - Dead Dog On The Highway Chords & Tabs

 

Dead Dog On The Highway Chords & Tabs

Sons Of Freedom Chords & Tabs

Version: 2 Type: Tab 0 ratings
1 star 2 stars 3 stars 4 stars 5 stars
comments

Dead Dog On The Highway Tab

#----------------------------------PLEASE NOTE---------------------------------#
#This file is the author's own work and represents their interpretation of the #
#song. You may only use this file for private study, scholarship, or research. #
#------------------------------------------------------------------------------##
From: bajjali@earth.genie.uottawa.ca (William Bajjali)
Subject: TAB: Dead Dog on the Highway, Sons of Freedom

A rather obscure band and album, relased in 1988.  Canadian...  from
Vancouver.

If you're into crunchy guitar, thumpy bass, and loud heavy rhythm,
give these guys a listen...  especially if you are also into the
Jesus Lizard.  The first release is best:  Sons of Freedom.

Ciao.

Mark.

                        DEAD DOG ON THE HIGHWAY

                            Sons of Freedom
                            from the album:
                            Sons of Freedom

Three main parts:

1     Intro and ryhthem drone chop:
[ Tab from: http://www.guitartabs.cc/tabs/s/sons_of_freedom/dead_dog_on_the_highway_tab_ver_2.html ]
      E-|-------------x---|   Heavily palm muted.  During verses let A string
      B-|-----8-----------|   ring and fret E string with thumb over the
      G-|-------------x---|   top (T).
      D-|-------10--------|
      A-|-------------x---|
      E-|-----T-------x---|


2     Power chord crunch:

      E-|---------|           A major at the nut.
      B-|-----3---|
      G-|-----3---|
      D-|-----3---|
      A-|---------|
      E-|---------|


3     Descending line in change:

      E-|-----------------------------------------------|
      B-|-----------------------------------------------|
      G-|-----------------------------------------------|
      D-|-------7-5----7-5----5-4----3-2----0---0-4-5---|
      A-|-----0------0------5------3------0---3---------|
      E-|-----------------------------------------------|
                                                 etc...  continue
                                                 from open A string.
Comments