Sons Of Buddha - Lost In Geneva Chords & Tabs

 

Lost In Geneva Chords & Tabs

Sons Of Buddha Chords & Tabs

Version: 1 Type: Tab 0 ratings
1 star 2 stars 3 stars 4 stars 5 stars
comments

Lost In Geneva Tab

-------------------------------------------------------------------------------
			     Lost in geneva - Sons Of Buddha
-------------------------------------------------------------------------------
Album : "The devil, The unknown..."
Dirty Witch records -> http://dirtywitch.free.fr


Tabbed by:daminOoOoOu /panpan
Email:daminouchou@hotmail.com

Tuning:normal 
  * = play many times
  # = palm mute 
  ~ = let ring
  / = slide

intro
e|------------------------------------------------------------------------|
B|------------------------------------------------------------------------|
G|------------------------------------------------------------------------|
D|-88xxxxx688xxxxx868--6888888---7----------------------------------------|
A|-88xxxxx688xxxxx868--6888888---7----------------------------------------|
E|-66xxxxx666xxxxx666--6666666---5----------------------------------------|
                \______/  \_____/
                   X6        X8

verse / "been walkin' for three hours..."
e|------------------------------------------------------------------------|
B|------------------------------------------------------------------------|
G|------------------------------------------------------------------------|
D|-8-8-6---8-6-7-7/8-----8-8-6--8-6-7-------------------------------------|
A|-8-6-6---8-4-7-7/8-----8-6-6--8-4-7-------------------------------------|
E|-6-6-4---6-4-5-5/6-----6-6-4--6-4-5-------------------------------------|
   * * *   * * *         * * *  * * *


chorus / "lost in geneva..."                    
e|----------------------------------|   -------6----------------------------|
B|----------------------------------|   -------7----------------------------|
G|----------------------------------|   -------8----------------------------|
D|-8-8-6--8xxxx688XXXX688xxxx688xxxx|X2 --6-4--8--8--7----------------------|
A|-8-6-6--8xxxx688XXXX688xxxx688xxxx|   --6-4--6--8--7----------------------|
E|-6-6-4--6xxxx666XXXX666xxxx666xxxx|   --4-2--6--6--5----------------------|
   * * *                                  * *  ~  *
[ Tab from: http://www.guitartabs.cc/tabs/s/sons_of_buddha/lost_in_geneva_tab.html ]
bridge#1
e|-------------------------------------------------------------------------|
B|-------------------------------------------------------------------------|
G|-------------------------------------------------------------------------|
D|-8-8--8-8--6-6--7-7/8-8-6-6--7-7-7-7/8-8-6-8-6-7-------------------------|
A|-8-8--6-6--6-6--7-7/8-8-4-4--7-7-7-7/8-6-6-8-4-7-------------------------|
E|-6-6--6-6--4-4--5-5/6-6-4-4--5-5-5-5/6-6-4-6-4-5-------------------------|
     *    *    *        *   *    *     * * * * * *
     #    #    #        #   #    #


chorus / "lost in geneva..."                    
e|----------------------------------|   -------6----------------------------|
B|----------------------------------|   -------7----------------------------|
G|----------------------------------|   -------8----------------------------|
D|-8-8-6--8xxxx688XXXX688xxxx688xxxx|X2 --6-4--8--8--7----------------------|
A|-8-6-6--8xxxx688XXXX688xxxx688xxxx|   --6-4--6--8--7----------------------|
E|-6-6-4--6xxxx666XXXX666xxxx666xxxx|   --4-2--6--6--5----------------------|
   * * *                                  * *  ~  *


bridge#2
e|---------------------------------------------------------------------------|
B|---------------------------------------------------------------------------|
G|---------------------------------------------------------------------------|
D|-8-8-6---8-6-7---8-8-6---8-6-77777-----------------------------------------|
A|-8-6-6---8-4-7---8-6-6---8-4-55555-----------------------------------------|
E|-6-6-4---6-4-5---6-6-4---6-4-55555-----------------------------------------|
   ~ ~ ~  ~ ~  ~   ~ ~ ~   ~ ~

verse
e|---------------------------------------------------------------------------|
B|---------------------------------------------------------------------------|
G|---------------------------------------------------------------------------|
D|-8-8-6---8-6-7-7/8-----8-8-6--8-6-7----------------------------------------|
A|-8-6-6---8-4-7-7/8-----8-6-6--8-4-7----------------------------------------|
E|-6-6-4---6-4-5-5/6-----6-6-4--6-4-5----------------------------------------|
   * * *   * * *         * * *  * * *

chorus / "lost in geneva..."                    
e|----------------------------------|    
B|----------------------------------|    
G|----------------------------------|    
D|-8-8-6--8xxxx688XXXX688xxxx688xxxx|X2  
A|-8-6-6--8xxxx688XXXX688xxxx688xxxx|    
E|-6-6-4--6xxxx666XXXX666xxxx666xxxx|    
   * * *                                  

outro
e|------|---------4-------------------------------------------------------------|
B|------|---------4-------------------------------------------------------------|
G|------|---------5-------------------------------------------------------------|
D|-8-8-6|X2---6-4-6-8-7-8-------------------------------------------------------|
A|-8-6-6|-----6-4-6-8-7-8-------------------------------------------------------|
E|-6-6-4|-----4-2-4-6-5-6-------------------------------------------------------|
   * * *      * * ~ *  

===============================================================================
Comments