Sons Of Angels - Cowgirl Chords & Tabs

 

Cowgirl Chords & Tabs

Sons Of Angels Chords & Tabs

Version: 1 Type: Tab 0 ratings
1 star 2 stars 3 stars 4 stars 5 stars
comments

Cowgirl Tab

Sons Of Angels - Cowgirl

Written by Hans Olav Solli
Performed by: Sons Of Angels
Album: Sons Of Angels

Transcribed by Marius Danielsen (Norway)
e-mail: marius_danielsen0307@hotmail.com

Intro: Drums

1. Guitar
Riff 1:
----------------------------------------------------------------------|
----------------------------------------------------------------------|
----------------------------------------------------------------------|
-----------------7--9-------------------------------------------------|
---------7--9----------9--7------0------------------------------------|
----9--------------------------9------2-------------------------------|

----------------------------------------------------------------------|
----------------------------------------------------------------------|
----------------------------------------------------------------------|
-----------------7--9-------------------------------------------------|
---------7--9----------9--7------0-0----------------------------------|
----9--------------------------9------2-------------------------------|

2. Guitar: Comes after the riff above played 2 times
Riff 2:
----------------------------------------------------------------------|
-----17-17-17-x----16-16-x--------------------------------------------|
-----16-16-16-x----15-15-x--------------------------------------------|
----------------------------------------------------------------------|
----------------------------------------------------------------------|
----------------------------------------------------------------------|

Verse 1: Fill in with guitar 1.. Listen to the song.

----------------------------------------------------------------------|
-----17-17-17-x----16-16-x--------------------------------------------|
-----16-16-16-x----15-15-x--------------------------------------------|
----------------------------------------------------------------------|
----------------------------------------------------------------------|
----------------------------------------------------------------------|

----------------------------------------------------------------------|
----------------------------------------------------------------------|
----------------------------------------------------------------------|
----9~--9~-9--7h9p7h9p7-----------------------------------------------|
----------------------------------------------------------------------|
----------------------------------------------------------------------|

----------------------------------------------------------------------|
----------------------------------------------------------------------|
----------------------------------------------------------------------|
----11-11---11-11-----------------------------------------------------|
----9---9---9---9-----7---7-8-----------------------------------------|
----------------------5---5-6-----------------------------------------|

Chorus

(Bass solo)
[ Tab from: http://www.guitartabs.cc/tabs/s/sons_of_angels/cowgirl_tab.html ]
1.Guitar
----------------------------------------------------------------------|
----------------------------------------------------------------------|
----------------------------------------------------------------------|
-----------------7--9-------------------------------------------------|
---------7--9----------9--7------0------------------------------------|
----9--------------------------9------2-------------------------------|

----------------------------------------------------------------------|
----------------------------------------------------------------------|
----------------------------------------------------------------------|
-----------------7--9-------------------------------------------------|
---------7--9----------9--7------0-0----------------------------------|
----9--------------------------9------2-------------------------------|

2. Guitar Plays with above riff

----------------------------------------------------------------------|
-----17-17-17-x----16-16-x--------------------------------------------|
-----16-16-16-x----15-15-x--------------------------------------------|
----------------------------------------------------------------------|
----------------------------------------------------------------------|
----------------------------------------------------------------------|

Verse 2:Same here, listen to the song to know where to fill in the riffs

----------------------------------------------------------------------|
-----17-17-17-x----16-16-x--------------------------------------------|
-----16-16-16-x----15-15-x--------------------------------------------|
----------------------------------------------------------------------|
----------------------------------------------------------------------|
----------------------------------------------------------------------|

----------------------------------------------------------------------|
----------------------------------------------------------------------|
----------------------------------------------------------------------|
---5--9~---9--9~--9--9~-----------------------------------------------|
----------------------------9-----------------------------------------|
----------------------------------------------------------------------|

----------------------------------------------------------------------|
----------------------------------------------------------------------|
----------------------------------------------------------------------|
----11-11---11-11-----------------------------------------------------|
---9---9----9---9-----7---7-8-----------------------------------------|
----------------------5---5-6-----------------------------------------|

Courus:

Guitar 1: (Solo)

Guitar 2: Background for solo

----------------------------------------------------------------------|
-----17-17-17-x----16-16-x--------------------------------------------|
-----16-16-16-x----15-15-x--------------------------------------------|
----------------------------------------------------------------------|
----------------------------------------------------------------------|
----------------------------------------------------------------------|

Chorus:


Can some one help me with the chorus and the solo please?
Send it on mail if u figure it out..
Comments