Sonicflood - My Refuge Chords & Tabs

 

My Refuge Chords & Tabs

Sonicflood Chords & Tabs

Version: 1 Type: Tab 0 ratings
1 star 2 stars 3 stars 4 stars 5 stars
comments

My Refuge Tab

   
My Refuge
Artist: Sonicflood
Album: Sonicflood
C1998 Gotee Music
Written by Deyo, Price, Halbert
Steve Cruickshank (postlambjam@hotmail.com)


Intro:
e--4------------------------------------------------------------
B--5-7p5-----------------------------7--------7-----------------
G--------------------------------------6--6-6----5-5---5h7-5----
D----------------6-9----7----7----4--------------7---7----------
A------------7h9-----------9------------------------------------
E--------7h9----------------------------------------------------
NC               E      Bm        F#m            Am

e----------------------------------2----------------------------------
B------------------------------7----2---------------------------------
G---------------9/11-9----9/7--------2--------------------------------
D----------6/9----------9-------------4---------7h9--9b10------------
A------7h9-----------------------------4----7h9---------------7h9p7---
E--7h9----------------------------------------------------------------
NC     E                  Bm       F#m      Am                    E

[ Tab from: http://www.guitartabs.cc/tabs/s/sonicflood/my_refuge_tab.html ]
Verse 1:
E Bm
F#m Am
E Bm
F#m Am

Chorus:
C G D D/F#
C G D
Em C
G D


Verse 2 guitar part:
e-----------------------------------------1412---------1412---------
B-----------------------------------------------12-10---------12-10---
G---1311-11-11--11-9-9--98-8-8--8-4-4-------------------------------
D---------------------------------------------------------------------
A---119--9--9---9--7-7--76-6-6--6-2-2-------------------------------
E---------------------------------------------------------------------
    E                                     F#m           Am


Verse 2:
E
F#m Am
E
F#m Am

Bridge:
Em C
G D/F#
Em C
G D/F#

Chorus 2:
B C G D D/F#
B C G D
Em C
G D

The song ends with the verse 2 progression: E F#m Am E  F#m D C G F

Uploaded by mark 
 God Bless!!!
Comments