Sonicflood - I Could Sing Of Your Love Forever Chords & Tabs

 

I Could Sing Of Your Love Forever Chords & Tabs

Sonicflood Chords & Tabs

Version: 1 Type: Bass Tab 0 ratings
1 star 2 stars 3 stars 4 stars 5 stars
comments

I Could Sing Of Your Love Forever Bass Tab

bass solo in the begginning.

G------------------------------------------------|------------------------|
D----------------------16h17p16-14----------14---|------------------------|
A---------14h16p14---16-----------16-14---14---16|16-18-19----------------|
E12--14-16--------------------------------16-----|---------17-17-19-19/12-|
[ Tab from: http://www.guitartabs.cc/tabs/s/sonicflood/i_could_sing_of_your_love_forever_btab.html ]
G-----------------------------------------------------------------|
D--------------------------------------16-------------------------|
A-------------------6-7--------------16--16p14--------------------|
E-12---12/7-8-9---9------5-7--/14--14----------16p14---/12---0/---|

ANY QUESTIONS EMAIL ME AT ELMUSIKOPEKOSO23@HOTMAIL.COM...
IM GOING TO DO A LIL VIDEO OF ME PLAYING THE SOLO FOR DEMONSTRATIONS, SO YOU CAN EMAIL
ME AND ILL SEND YOU THE VID..BYE
Comments