Sonic Youth - Youth Against Facism Chords & Tabs

 

Youth Against Facism Chords & Tabs

Sonic Youth Chords & Tabs

Version: 1 Type: Bass Tab 0 ratings
1 star 2 stars 3 stars 4 stars 5 stars
comments

Youth Against Facism Bass Tab

Song: Youth Against Fascism 
By: Sonic Youth
Tab by: Jake (jcholewc@sparky.lkwash.wednet.edu)

This is riff is played through out the song

---------------------------------------------------
---------------------------------------------------
---------------------5-5-5-5-5-5-5-5-5-5-3-3-3-3-3-
-3-3-3-3-3-3-3-3-3-3-------------------------------
[ Tab from: http://www.guitartabs.cc/tabs/s/sonic_youth/youth_against_facism_btab.html ]
---------------------------------------------------
---------------------------------------------------
-3-3-3-3-3-----------------------------------------
-----------5-5-5-5-5-5-5-5-5-5-5-5-5-5-5-5-5-5-5-5-


I think the bass line might be distorted, because it 
sounds so thick on the album.. 


Corrections?/Comments??/ideas???
e-mail jcholewc@sparky.lkwash.wednet.edu

Comments