Sonic Youth - Tuff Gnarl Chords & Tabs

 

Tuff Gnarl Chords & Tabs

Sonic Youth Chords & Tabs

Version: 1 Type: Bass Tab 0 ratings
1 star 2 stars 3 stars 4 stars 5 stars
comments

Tuff Gnarl Bass Tab

			SONIC YOUTH
			TUFF GNARL

Bass tab by chris Lawrence

Start:

G----------------------
D----------------------
A-------2-2---0-0---0--
E--0-0-----------------

Then it changes octave:
[ Tab from: http://www.guitartabs.cc/tabs/s/sonic_youth/tuff_gnarl_btab.html ]
G-----------------------
D-------9-9---7-7-7-7-7-
A--7-7------------------
E-----------------------

"Poke yr eyes out" part:

G------
D------
A--4---
E-(2)-- You can throw in the F# if you want.

The bass basically sticks on that chord for the entire noise jam.

Chris





Comments