Sonic Youth - Teenage Riot Chords & Tabs

 

Teenage Riot Chords & Tabs

Sonic Youth Chords & Tabs

Version: 2 Type: Tab

Teenage Riot Tab

Okay, here it goes, Teen Age Riot In Standard Tuning...

Intro:
e-------------------------------------------------|
B-------------------------------------------------|
G---0-----5--5---7---7--7---5--5------------------|
D-2---2---0--0---0---0--0---0--0------------------|
A-------------------------------------------------|
E-------------------------------------------------|

Distorted Riff after the intro:
e-------------------------------------------------------|
B-------------------------------------------------------|
G------7--7--5--5--------0-----0--0-------2-2--2-2-2-2--|
D--0---0--0--0--0----0h2---0h2------2--0--0-0--0-0-0-0--|
A-------------------------------------------------------|
E-------------------------------------------------------|
[ Tab from: http://www.guitartabs.cc/tabs/s/sonic_youth/teenage_riot_tab_ver_2.html ]
Verses (listen to record for strumming pattern)
e------------------------------------------3-3-3--0-0-0-|
B------------------------------------------3-3-3--0-0-0-|
G------------------------------2-2-2-2-2----------------|
D-2-2-2-2-2-2-2-2-2-2-2-2-2-2--0-0-0-0-0----------------|
A-0-0-0-0-0-0-0-0-0-0-0-0-0-0---------------------------|
E-------------------------------------------------------|

Chorus (Again, work out strumming pattern from record)
e------------------------------------------------------|
B------------------------------------------------------|
G------------------------------------------------------|
D------------------------------------------------------|
A--12---14----12---14----12---14----17---15----7----5--|
E--0----0-----0----0-----0----0-----0-----0----0----0--|


I think you will agree, this tab is amazing.