Sonic Youth - Superstar Chords & Tabs

 

Superstar Chords & Tabs

Sonic Youth Chords & Tabs

Version: 2 Type: Bass Tab 0 ratings
1 star 2 stars 3 stars 4 stars 5 stars
comments

Superstar Bass Tab

Superstar - Sonic Youth
[ Tab from: http://www.guitartabs.cc/tabs/s/sonic_youth/superstar_btab_ver_2.html ]
  verse measure                                 bridge
G|-----------------------------------------------|--------------|
D|-----------------------------------------------|/5-345--------|
A|8-88--6-66--4-44--3-33--1-11--4-44--3-33--3-33-|-------4------|
E|-----------------------------------------------|--------1-11--|

  chorus riff      chorus end
G|----------------|--------|
D|----------------|--------|
A|4---3-1---------|--------|
E|--------4-4-4-4-|2---1---|

tabbed by Achilles (blue_sincere@hotmail.com)
Comments