Sonic Youth - Society Is A Hole Chords & Tabs

 

Society Is A Hole Chords & Tabs

Sonic Youth Chords & Tabs

Version: 1 Type: Bass Tab 0 ratings
1 star 2 stars 3 stars 4 stars 5 stars
comments

Society Is A Hole Bass Tab

			SONIC YOUTH
                        SOCIETY IS A HOLE

Bass tab by Chris Lawrence

Too simple!
[ Tab from: http://www.guitartabs.cc/tabs/s/sonic_youth/society_is_a_hole_btab.html ]
G--------------------------------
D--------------------------------
A--7-7------5-5-5---7-7------5---
E------0-0--------------0-0------

At 4:00 it goes:

G-----------------------------
D------------5----------------
A---------5--------------5----
E-0-0-0-0-------0-0-0-0-------

Chris





Comments