Sonic Youth - Silver Rocket Chords & Tabs

 

Silver Rocket Chords & Tabs

Sonic Youth Chords & Tabs

Version: 1 Type: Tab 0 ratings
1 star 2 stars 3 stars 4 stars 5 stars
comments

Silver Rocket Tab

#----------------------------------PLEASE NOTE---------------------------------#
#This file is the author's own work and represents their interpretation of the #
#song. You may only use this file for private study, scholarship, or research. #
#------------------------------------------------------------------------------##
 <9304070024.AA18546@selway.umt.edu>
To: jamesb@animal-farm.nevada.edu
Subject: Re: TAB: SILVER ROCKET by SONIC YOUTH
Newsgroups: alt.guitar.tab
In-Reply-To: <1993Apr3.203006.20776@selway.umt.edu>
Organization: University of Montana
Cc:
[ Tab from: http://www.guitartabs.cc/tabs/s/sonic_youth/silver_rocket_tab.html ]
In article <1993Apr3.203006.20776@selway.umt.edu> you write:
>Silver Rocket by Sonic Youth
>(Teenage Riot comming soon!)
>
>Tuning low to high:
>ACCGG#C
>
>how to tune:
>tune the high  to the fifth fret of the G string.  Tune the  to the
>first fret of the G string.  Tune the  string to the third fret of the
> string. Tune the  string up to the  string. Tune the  string
>to match the old  string (now C string).
>
>C-------9---------5---|-----------------------------|
>G#-----9-9---------5--|-----------------------------|
>G-----9---9----5----5-|--0000000333333-0000000333333|
>C----9-----9--5-5----5|--0000000333333-0000000333333|
>C---9--------5--------|--0000000333333-0000000333333|
>A---------------------|----------------3333333000000|
>
>now the guitars split up:
>
>guitar I:
>
>C---------11-11-11-9-------------------------11-11-11-9----------------------|
>G#--------11-11-11-9-9--11-11-9--11-9--11-9--11-11-11-9-9--11-11-11-11-11-11-|
>G--------------------10-12-12-10-12-10-12-10------------10-12-12-12-12-12-12-|
>C----------------------------------------------------------------------------|
>C----------------------------------------------------------------------------|
>A---xsl-0--------------------------------------------------------------------|
>|
>|Guitar II: (no timing represented)
>C---7-------3----|repeat with above--0-|
>G#--8-------4----|            then:--0-|for the "solo" or noise or whatever
>G---9-------5----|                 --0-|
>C---7-------3----|                 --0-|
>C---7-------3----|                 --0-|
>A----------------|                 --0-|
>
>the last chord is played on two guitars:
>022XXX and 066766.
>
>IF YOU POST THIS ANYWHERE ELSE, PLEASE GIVE ME CREDIT.
>thanks.
>elric@selway.umt.edu
>
Comments