Sonic Youth - Pacific Coast Highway Chords & Tabs

 

Pacific Coast Highway Chords & Tabs

Sonic Youth Chords & Tabs

Version: 2 Type: Bass Tab 0 ratings
1 star 2 stars 3 stars 4 stars 5 stars
comments

Pacific Coast Highway Bass Tab

			SONIC YOUTH
			PACIFIC COAST HIGHWAY

G------------------------------------4--
D---------------------------------3-----
A---------------------------------------
E--0-0-0-0-0-0-0----0-0-0-0-0-0-0-------
[ Tab from: http://www.guitartabs.cc/tabs/s/sonic_youth/pacific_coast_highway_btab_ver_2.html ]
Then, the bridge part goes between these two chords:

G-----------
D--------4--
A--7--------
E--0-----2--

Occasionally playing:

G--------------
D-----4-----6--
A--7-----7-----
E--0--2--0-----

Or something like that.

chris



Comments