Sonic Youth - My Arena Chords & Tabs

 

My Arena Chords & Tabs

Sonic Youth Chords & Tabs

Version: 1 Type: Tab 0 ratings
1 star 2 stars 3 stars 4 stars 5 stars
comments

My Arena Tab

SONG: "My Arena" by Sonic Youth
TABBED BY: Lukas Neil
TUNING: Standard EADGBE
Listen to the song itself to get the timing correct [its quite rare].


VERSE

|---------------------------------|
|---------------------------------|
|---------------------------------|
|-11-11----12---8-8-8-------------|  x3
|-------12------8-8-8-------------|
|---------------6-6-6-------------|

|------------------------------------------|
|------------------------------------------|
|------------------------------------------|
|-13-13----13--10-10-10-10-10-10-10-10-----|
|-------14-----10-10-10-10-10-10-10-10-----|
|--------------8--8--8--8--8--8--8--8---0--|



CHORUS
[ Tab from: http://www.guitartabs.cc/tabs/s/sonic_youth/my_arena_tab.html ]
Gtr 1
|---------------------------------|
|---------------------------------|
|--9-9-9-----7-7-7----------------|
|--9-9-9--7--7-7-7-7--------------|
|--7-7-7--7--5-5-5-7--------------|
|---------5--------5--------------|

Gtr 2
|--12-12-12-12-12-12-12-12-12-12-12-12-12-12-12---|
|-------------------------------------------------|
|-------------------------------------------------|
|-------------------------------------------------|
|-------------------------------------------------|
|-------------------------------------------------|

|--10-10-10-10-10-10-10-10-10-10-10-10-10-10-10---|
|-------------------------------------------------|
|-------------------------------------------------|
|-------------------------------------------------|
|-------------------------------------------------|
|-------------------------------------------------|

That's it.  http://www.inertia-grunge.tk
Comments