Sonic Youth - Mackin For Doober Chords & Tabs

 

Mackin For Doober Chords & Tabs

Sonic Youth Chords & Tabs

Version: 1 Type: Tab 0 ratings
1 star 2 stars 3 stars 4 stars 5 stars
comments

Mackin For Doober Tab

#----------------------------------PLEASE NOTE---------------------------------#
#This file is the author's own work and represents their interpretation of the #
#song. You may only use this file for private study, scholarship, or research. #
#------------------------------------------------------------------------------##
Mackin for Doober
By-Sonic Youth

key-
X=mute and strum

intro-3X

|-----------------------|
|-----------------------|
|-----------------------|
|----------0-0----------|
|-2-2-2-2-----0-00-----|
|-----------------------|

main riff -3X
[ Tab from: http://www.guitartabs.cc/tabs/s/sonic_youth/mackin_for_doober_tab.html ]
|----------------------------------------|
|-------------0-0------------------------|
|-0-0-0-0----7-7-0--0-0----------------|
|-0-0-0-0----7-7-7--7-7---------------|
|-9-9-9-9XX--5-5-7--7-7----------------|
|-7-7-7-7XX------5--5-5---------------|

RIFF 2 (after main riff) -

|--------------------------------------|
|-------0-------M--R-----------------|
|-0-0XX-7-0-0---A--I------------------|
|-4-7XX-7-9-9---I---F-----------------|
|-4-7XX-5-9-9---N---F-----------------|
|-2-5XX---7-7--------------------------|


If you have MADE IN USA then you know most of the REAL songs (which are very few) sound like variations of this.This song was the best one i could hear.This song is very rocklike and cheezy, though it fits Sonic Youth's style of music,except for the fucked  up tunings.

love yr all
Comments