Sonic Youth - Kill Yr Idols Chords & Tabs

 

Kill Yr Idols Chords & Tabs

Sonic Youth Chords & Tabs

Version: 1 Type: Tab 0 ratings
1 star 2 stars 3 stars 4 stars 5 stars
comments

Kill Yr Idols Tab

Kill Yr. Idols tab

This has quite an odd tune setting which is quite hard to work out:
Use the 4th string on normal tuning to tune to G, the 3rd string to tune to D
and the top string to tune to Eb and G. 


Intro:

G  |--0-0---------------0-0-------------|
Eb |--0-0---------------0-0-------------|
D  |--0-0---5-5---5-5---0-0---6--^--6--^|
D  |--0-0---5-5---5-5---0-0-------------|
G  |--0-0---------------0-0-------------|
G  |--0-0---------------0-0-------------|

Verse/Chorus:
[ Tab from: http://www.guitartabs.cc/tabs/s/sonic_youth/kill_yr_idols_tab.html ]
G  |--0-0---------------0-0--|
Eb |--0-0---------------0-0--|
D  |--0-0---1-1---1-1---0-0--|
D  |--0-0---1-1---1-1---0-0--|
G  |--0-0---------------0-0--|
G  |--0-0---------------0-0--|

Improvise the noise grunge part
BASS PART:

Intro/Verse/Chorus:

D  |------------------------------------------|
D  |------------------------------------------|
G  |-------------------3-3-3-3-3-3-3-3--------|
G  |--0-0-0-0-0-0-0-0-------------------------|

Noise solo:

D  |--------------------------------------|
D  |--------------------------------------|
G  |--4---4---4---4---4---4---4---4-------|
G  |--------------------------------------|

[getting increasingly faster/louder with the drumbeat]


By Luke, visit www.freewebs.com/endorphin to see my band, "Inertia"
Comments