Sonic Youth - Diamond Sea Chords & Tabs

 

Diamond Sea Chords & Tabs

Sonic Youth Chords & Tabs

Version: 1 Type: Tab 0 ratings
1 star 2 stars 3 stars 4 stars 5 stars
comments

Diamond Sea Tab

#----------------------------------PLEASE NOTE---------------------------------#
#This file is the author's own work and represents their interpretation of the #
#song. You may only use this file for private study, scholarship, or research. #
#------------------------------------------------------------------------------#


From: DBleak@aol.com
Date: Thu, 21 Dec 1995 14:25:02 -0500

=0D
SONG: Diamond Sea
ARTIST: Sonic Youth
CONCERT: This is the version I heard at KOME's ALMOST ACCOUSTIC CHRISTMAS=
[ Tab from: http://www.guitartabs.cc/tabs/s/sonic_youth/diamond_sea_tab.html ]
=0D
TABBING: only guitar 1, note: U need a wawa pedal to make this sound tota=
lly right.
=0D
e-------------------------------\
B-------------------------------|
G-14-12-11----------------------|
D----------12-14-14-14----------|
A-------------------------------|
E-------------------------------/
          Repeat a couple times, intro riff
=0D
e--------------------------------------------------------------------\
B--------------------------------------------------------------------|
G--------------------------------------------------------------------|
D-14-12-10-12-7-7-12-7-7/14-14-12-10-12-------10----7/14-12-10-------|
A---------------------------------------10-10----10------------------|
E--------------------------------------------------------------------/
           Main Riff, repeated a lot
=0D
e-------------------------------\
B-------------------------------|
G-------------------------------|
D-12-10-14---12-10-9-7----------|
A-------------------------------|
E-------------------------------/
Outro Riff, also repeated a lot
=0D
now, that's it, remember, you're getting this from a fourteen year old so=
 don't get pissed if it's wrong, mkay
replys/repairs to DBleak@AOL.com

--PART.BOUNDARY.0.17542.mail06.mail.aol.com.819573900--
Comments