Sonic Youth - Diamond Sea Chords & Tabs

 

Diamond Sea Chords & Tabs

Sonic Youth Chords & Tabs

Version: 2 Type: Bass Tab

Diamond Sea Bass Tab

The Diamond sea

The other tab for this song is really... simple... just verse and chorus... missing a
of parts... I think this is right... the tunning: Sonic Youth didn't tunne the guitars...
whatever... anyway sounds good.


Intro/verse:
4|----------------------------|
3|----------------------------|
2|---10-10-10-12--------------|
1|---------------10-12-12-12--|
   Four times


Chorus:
4|--4-2-0-2------0---4---4-2-0-2-----0---4-2-0-|
3|----------2-2----2-------------0-0---0-------|
2|---------------------------------------------|
1|---------------------------------------------|
[ Tab from: http://www.guitartabs.cc/tabs/s/sonic_youth/diamond_sea_btab_ver_2.html ]
Instrumental:
4|------------------------------|
3|5/7-75-5-5-5-5-5-5-(etc.------|
2|------------------------------|
1|------------------------------|

keep playing that until:
4|---------------------------------------------------------|
3|---------------------------------------------------------|
2|-7-7-7-7-7-7-7-6-6-6-6-6-6-6-7-7-7-7-7-7-7-8-8-8-8-8-8-8-|
1|---------------------------------------------------------|

repeat that until there's a lot of noise and things, then:
4|-----------------------------------------|
3|-----------------------------------------|
2|-7-7-7-7-7-7-7-7-7-7-7-7-7-7-7-7-7-(etc.)|
1|-----------------------------------------|

keep going until there's another verse...

thats it!... made of course by palos... rate it 5 ;)