Sonic Youth - Diamond Sea Chords & Tabs

 

Diamond Sea Chords & Tabs

Sonic Youth Chords & Tabs

Version: 1 Type: Bass Tab 0 ratings
1 star 2 stars 3 stars 4 stars 5 stars
comments

Diamond Sea Bass Tab

Song Title: Diamond Sea (corrected version)
Artist: Sonic Youth
----------------------------------------------

I.
G--5-5-5-7----------
D-----------5-7-7-7-
A-------------------
E-------------------

[ Tab from: http://www.guitartabs.cc/tabs/s/sonic_youth/diamond_sea_btab.html ]
II.
G--4--2--0--2--------0-----4-----4--2--0--2--------0-----4--2--0--0
D--------------2--2-----2--------------------0--0-----0------------
A------------------------------------------------------------------
E------------------------------------------------------------------ 

Repeat the first part until it switches, and then play the second part.
That's about it!




Submitted by:  Brian Mattern (mmattern@neosoft.com)



Comments