Sonic Youth - Death Valley 69 Chords & Tabs

 

Death Valley 69 Chords & Tabs

Sonic Youth Chords & Tabs

Version: 1 Type: Bass Tab 0 ratings
1 star 2 stars 3 stars 4 stars 5 stars
comments

Death Valley 69 Bass Tab

			SONIC YOUTH
			DEATH VALLEY 69 

Bass tab by Chris Lawrence

G-----------------------
D-----------------------
A-----------------------
E--2-2-0--0-2-2-2-2-0---

Verse:
[ Tab from: http://www.guitartabs.cc/tabs/s/sonic_youth/death_valley_69_btab.html ]
G-------------5---------------3--
D--------------------------------
A-0-0-0-0-etc.----0-0-0-0-etc.---
E--------------------------------

"Hit it, hit it" part:

G--------------6---------------7---
D----------------------------------
A-0-0-0-0-0-etc.---0-0-0-0-0-etc.--
E----------------------------------

A bit of that is probably wrong, but I'm sure you can tinker around with
it a bit and figure it out properly.

Chris



Comments