Sonic Youth - Burnin Up Chords & Tabs

 

Burnin Up Chords & Tabs

Sonic Youth Chords & Tabs

Version: 2 Type: Tab 0 ratings
1 star 2 stars 3 stars 4 stars 5 stars
comments

Burnin Up Tab

#----------------------------------PLEASE NOTE---------------------------------#
#This file is the author's own work and represents their interpretation of the #
#song. You may only use this file for private study, scholarship, or research. #
#------------------------------------------------------------------------------##
FROM: MIKE ABRAHAM (bobbyblu@star.net)
Ciccone Youth (sonic youth w/ mike watt)
BURNIN' UP (maddona song performed by mike watt)
it's off the ciccone youth single on new alliance records

x= rake
U= pick up hard

Burnin' Up----       CAPO ON SECOND FRET!!!
[ Tab from: http://www.guitartabs.cc/tabs/s/sonic_youth/burnin_up_tab_ver_2.html ]
|-----------3--2-xxx------------------------|
|-----------3--3-xxx---------xxxx- 2222-----|
|-xxx3-0----2--3-xxx--3-0---xxxx--2222------|
|-xxx3-0-------------- 3-0---xxxx--2222-----|
|-------------------------------------------|
|-------------------------------------------|

|-----------3--2-xxx------------------------------|
|-----------3--3-xxx---------xxxx- 2222-xxx-------|
|----3-0----2--3-xxx--3-0---xxxx--2222-xxx--------|
|----3-0-------------- 3-0---xxxx--2222-xxx-------|
|-------------------------------------------------|
|-------------------------------------------------|

I'm burnin up!        fire!       fire!   etc.....

|-------------------------------------|
|-------------------------------------|
|-------------------------------------|
|-3-3---5-5---7-7-7-7-----------------|
|-3-3---5-5---7-7-7-7-----------------|
|-1-1---3-3---5-5 0-5----------- -----|
Comments