Sonic Youth - Bull In The Heather Chords & Tabs

 

Bull In The Heather Chords & Tabs

Sonic Youth Chords & Tabs

Version: 1 Type: Tab 0 ratings
1 star 2 stars 3 stars 4 stars 5 stars
comments

Bull In The Heather Tab

#----------------------------------PLEASE NOTE---------------------------------#
#This file is the author's own work and represents their interpretation of the #
#song. You may only use this file for private study, scholarship, or research. #
#------------------------------------------------------------------------------#
#
Date: Tue, 09 Jan 96 21:15:32 -0800
From: fmplima 
Subject: Guitar Tablature of Bull In The Heater - Sonic Youth

Artist: SONIC YOUTH
Album: EXPERIMENTAL JET SET, TRASH AND NO STAR
Song: BULL IN THE HEATHER
From: Henrique Gazolla "Luciferis" (fmplima@brasilnet.com.br)

 It was not so easy to figure it out, so it might have some errors...

--------
Harmonic:
--------

E|---------------------+7;----------------------+9;------|
B|--------------------------+7;-+7;-+7;-+7;-+7;----------|
G|-------------------------------------------------------| (4x)
D|+9;-+9;-+9;-+9;-+9;------------------------------------|
A|-------------------------------------------------------|
E|-------------------------------------------------------|

Obs.: +x; = touch harmonic thing at x


------
Intro:
------
guitar 1: G5
guitar 2: G5

guitar 1:
E|--------------------------------------------------------|
B|-------15-------13-------10---10---------------12-------|
G|-13/15----15/13-----10-10--10---10-10-10/11/12----------|
D|--------------------------------------------------------|
A|--------------------------------------------------------|
E|--------------------------------------------------------|
     |----------twice this part-----|
guitar 2:

G5D|--------5---5--5---------5--5---5-------|
A|--------5---5--5---------5--5---5-------|
E|--------3---3--3---------3--3---3-------|
     |----------twice this part-----|
[ Tab from: http://www.guitartabs.cc/tabs/s/sonic_youth/bull_in_the_heather_tab.html ]
-------
Verse1:
-------
guitar 1:
E|--------------------------------------14-12-10--9-10-12------14-|
B|----------------------------------------------------------12----|
G|----------------------------------------------------------------|
guitar 2:
G|------------------------11---11---------------------------11-11-|
D|-9-----12-11-----11----------------9-----(12-11)=3x-11----------|
A|----------------------------------------------------------------|
E|----------------------------------------------------------------|
  


guitar 1:
E|---14-12-10--9-10-12-14----14~|-9-10-12---9---14--14~|
B|------------------------12----|----------------------|
G|------------------------------|----------------------|

guitar 2:
G|-----------------------11-11-|---------------11---11|
D|9----12-11-------11----------|9--12-11---11---------|
A|-----------------------------|----------------------|
E|-----------------------------|----------------------|


-------
Bridge:
-------
B|-------16-15-|-------16-15-|-------------|
G|-14-15-------|----15-------|-------------|
D|-------------|-13----------|--13-----12--| (2x)
A|-------------|-------------|-------------|
E|-------------|-------------|-------------|
 

-------
Intro2:
-------
guitar 1: G5
guitar 2: G5

guitar 1:
E|-------13-------------|
B|-10/12-13---12/10-10--|
G|-10/12------12/10-10--|

guitar 2: G5

-------
Verse2:
-------
guitar 1:
E|--------------------------------------14-12-10--9-10-12--13-14-14~|
B|------------------------------------------------------------------|
G|------------------------------------------------------------------|
guitar 2:
G|------------------------11---11-----------------------------11-11-|
D|-9-----12-11-----11----------------9-----(12-11)=3x--11-----------|
A|------------------------------------------------------------------|
E|------------------------------------------------------------------|


guitar 1:
E|---14-12-10--9-10-12-14----14~|-9-10-12-10-9-12-14--14-14~|
B|------------------------12----|---------------------------|
G|------------------------------|---------------------------|

guitar 2:
G|-----------------------11-11-|---------------------11---11|
D|9----12-11-------11----------|9--12-11------11------------|
A|-----------------------------|----------------------------|
E|-----------------------------|----------------------------|



THAT'S ALL
HOPE IT'S USEFUL

---------------------------------------------------
For any corrections, please e-mail me:
Henrique Gazolla (fmplima@brasilnet.com.br)
Belo Horizonte, MG Brasil! 15:17  8/01/96
---------------------------------------------------

---------------------------------117892895430325--
Comments