Sonic Youth - Brave Men Run Chords & Tabs

 

Brave Men Run Chords & Tabs

Sonic Youth Chords & Tabs

Version: 1 Type: Bass Tab 0 ratings
1 star 2 stars 3 stars 4 stars 5 stars
comments

Brave Men Run Bass Tab

			SONIC YOUTH
			BRAVE MEN RUN (in my family)

Bass tab by Chris Lawrence (mustang@islandnet.com)

G-----------------------------------------------
D-----------------------------------2--2-2-2-0--  REPEAT
A-2--2-2-2-0--------------------2---------------
E-------------2--2-2--2-0---0-0-----------------

Then:
[ Tab from: http://www.guitartabs.cc/tabs/s/sonic_youth/brave_men_run_btab.html ]
G-----------------------------------------------------
D-----------------------------------------------------
A-----------------------------------------------------
E--3-3-3-3-3-3-3-3-3-3-3-etc.-0-0-0-0-0-0-0-0-0-etc.--

Then into a noisy break part, then the verse, which is simply:

G------------
D--0-----0---
A-----0------
E------------

Chris




Comments