Sonic Youth - Bee Bees Song Chords & Tabs

 

Bee Bees Song Chords & Tabs

Sonic Youth Chords & Tabs

Version: 2 Type: Bass Tab 0 ratings
1 star 2 stars 3 stars 4 stars 5 stars
comments

Bee Bees Song Bass Tab

			SONIC YOUTH
			BEE-BEE'S SONG

From the Suburbia soundtrack.

Bass tab by Chris Lawrence.

Not sure if this is the right octave, sorry. I tabbed it in Drop-D
to get the Eb's, but like I said, this may be in the wrong
octave (parts of it, at least).

  filler        verse
G----------------------------------------------------------------
D----------------------------------------------------------------
A---------------1--3--------1--3--------1--3---------------------
D---3-----3-----------3--3--------3--3---------1--1---6-8--3--3--

"...guitar":
[ Tab from: http://www.guitartabs.cc/tabs/s/sonic_youth/bee_bees_song_btab_ver_2.html ]
G-------- -------------------------------------
D-------- -------------------------------------     
A-------- --3----3----3-4-4--3-----3----3-4-4-- etc.
D---6-8-- -------------------------------------

the best part:

G------------------------6----------------------
D------------6--8--8-6-8--------------4---6-----
A---8--8-6-8-----------------6--6-4-6--------7--
D-----------------------------------------------

(is it just me or does that part sound like a Folk Implosion song?)

Somewhere in the middle there's a little part where the bass plays
these notes (don't know how many times each note is played, though):

G------------
D---3---6-5--
A------------
D------------

That's pretty much the whole of the song. If there's any troubles,
let me know.

Chris Lawrence
mustang@islandnet.com



Comments