Sonic Youth - Becuz Chords & Tabs

 

Becuz Chords & Tabs

Sonic Youth Chords & Tabs

Version: 1 Type: Tab 0 ratings
1 star 2 stars 3 stars 4 stars 5 stars
comments

Becuz Tab

#----------------------------------PLEASE NOTE---------------------------------#
#This file is the author's own work and represents their interpretation of the #
#song. You may only use this file for private study, scholarship, or research. #
#------------------------------------------------------------------------------##
#

Date: Tue, 16 Apr 1996 22:16:37 +0200
From: Nitemare Hippy Girl 


#1: Becuz by Sonic Youth on Washing Machine

Tabbed by: Anne-Paulien Helmond (F.Helmond@inter.nl.net)

I think this one sounds better then the other tab, but I could be wrong (and
so could the tab).

I've tried to write down the rythm, but if you listen to the album close you'll
get it.

v = an accent
/ = slide

Intro + verse + chorus
[ Tab from: http://www.guitartabs.cc/tabs/s/sonic_youth/becuz_tab.html ]
(gitar 1)
     v     v        v        v
e|------------------------------------|
b|------------------------------------|
g|---4--4--2--2--2--------------------|
d|---4--4--2--2--2--5--5--5--7--7--7--|
a|------------------5--5--5--7--7--7--|
e|------------------------------------|

"I wish I could change the way that you feel..."

(gitar 2 at:   "Looking so sweet with on your mind")
               and other pieces

e|-----------------------|
b|-----------------------|    ... = a *lot* of times 
g|---11--11--11.../4--4--|
d|---11--11--11.../4--4--|
a|-----------------------|
e|-----------------------|

or:

e|------------------------------|
b|------------------------------|
g|---11--11--11.../4--4/--2--2--|
d|---11--11--11.../4--4/--2--2--|
a|------------------------------|
e|------------------------------|

Disortion/feedback part:
I'm not able to figure this out, since I'm tabbing this on a
crappy 30 year old acoustic... sorry.

Please send me suggestions/corrections/money/demo tapes  *smile*     :)

Nitemare Hippy Girl (F.Helmond@inter.nl.net)


Comments