Sonic Knuckles - Sandopolis Zone Act Chords & Tabs

 

Sandopolis Zone Act Chords & Tabs

Sonic Knuckles Chords & Tabs

Version: 1 Type: Tab 0 ratings
1 star 2 stars 3 stars 4 stars 5 stars
comments

Sandopolis Zone Act Tab

Song: Sonic & Knuckles: Sandopolis Zone Act 1
Tabbed By: Tim Barr
Mx ID: SpADeD
Date: 2/23/04

E||----------------------|---------------------------|
B||----------------------|-------0-----------------0-|
G||-------------------1--|---2------2-1--------1-2---|
D||---------------2-3----|--------------3-2--3-------|
A||----------------------|---------------------------|
E||----------------------|---------------------------|


                                                                   
--------------------------|---0----------------|
--------0-----0-1-3-0-1-3-|-----3-1-0----------|
---2--------2-------------|--------------------|
--------------------------|--------------------|
--------------------------|--------------------|
--------------------------|--------------------|


                                                                            
                                                           
------------------------------|---------------------------|
------------------------------|-----------------0--1--0---|
------------------------------|-----------1--2----------2-|
---0--0-----------------------|---------------------------|
---------3--3--2-2--0------0--|--2------------------------|
-----------------------4------|---------------------------|


                                                                        
-----------------------------0---|
---0--3--1--0--------------------|
---------------2--1--------------|
---------------------3--2--0-----|
---------------------------------|
---------------------------------|


                                                               
------------------|-----------------------|-------------------|
------------------|---------------3--1--0-|-------------------|
------------------|-----------------------|-------------------|
------------------|-----------------------|-------------------|
------------------|-----------------------|-------------------|
------------------|-----------------------|-------------------|


                                                                       
----------------------|------------------------|----------------------|
---0-0----------------|------------3--1--0-----|------------0---------|
---0------------------|------------------------|---------------2---1--|
----------------------|------------------------|----------------------|
----------------------|------------------------|----------------------|
----------------------|------------------------|----------------------|


                                                                               
---------------------|
---------------------|
---------------------|
----2----------------|
---------------------|
---------------------|


                                                                         
|----------------------------------|
|----------------------------------|
|----------------------------------|
|---0--0---------------------------|
|---------3--3--2-2--0------0--2---|
|-----------------------4----------|


                                                                 
------------------------------|---------------------------0-----|
---------------0--1--0-----0--|----3--1-0-----------------------|
----------1--2----------2-----|------------2--1-----------------|
------------------------------|------------------3--2--0--------|
------------------------------|---------------------------------|
------------------------------|---------------------------------|


                                                         
                                                                      
------------------------|-----------------------|--------------------|
--------------3--1--0---|------------------0-1--|---0----------------|
------------------------|-----------------------|--------------------|
------------------------|-----------------------|--------------------|
------------------------|-----------------------|--------------------|
------------------------|-----------------------|--------------------|


                                                                     
-----------------------|-----------------------|--------------------|
------------3--1-0-----|------------0----------|--------------------|
-----------------------|---------------2---1---|--------------------|
-----------------------|-----------------------|----2---------------|
-----------------------|-----------------------|--------------------|
-----------------------|-----------------------|--------------------|


                                                                            
                       
---------------------||
---------------------||
---------------------||
------------------0--||
---------------------||
---------------------||

Guitar 2:

E||------------------|--------------------|-----------------------|
B||------------------|------------------0-|------------1--3--0----|
G||------------------|--------------------|---2-------------------|
D||------------------|--------------------|-----------------------|
A||------------------|--------------------|-----------------------|
E||------------------|--------------------|-----------------------|


                                                                               
---0-----------------|
------3--------------|
---------------------|
---------------------|
---------------------|
---------------------|


                                                               
|------4---4--1----------|
|---3------------3---0---|
|------------------------|
|------------------------|
|------------------------|
|------------------------|


                                                    
---------------------------|-----------------------|
---------0-1-0-------------|-----------------------|
--1----------------1-------|-----------------------|
------------------------3--|-------2----2-------2--|
---------------------------|-----------------------|
---------------------------|-----------------------|


                                                                     
----------------------------------|---------------------------------|
----------------------------------|------------------------------0--|
-----1--1-2-1---------------------|-------------1--1-2-1-------2----|
---3----------3-2---2-0-----------|---------2-3-----------3-2-------|
------------------------3--2-3-2--|---------------------------------|
----------------------------------|----4-0--------------------------|


                                                                 
--------------------------|
-----------0--3-----------|
---2--1-2-----------------|
--------------------------|
--------------------------|
--------------------------|
[ Tab from: http://www.guitartabs.cc/tabs/s/sonic_knuckles/sandopolis_zone_act_tab.html ]
                                                                         
                                                                             
---------------------|----4---4--1--------------|---------------------------|
-------------------3-|--------------3---0-------|-------0-1--0--------------|
---------------------|----------------------1---|-----------------1---------|
---------------------|--------------------------|-----------------------3---|
---------------------|--------------------------|---------------------------|
---------------------|--------------------------|---------------------------|


                                                            
------------------------|----------------------------------|
------------------------|----------------------------------|
------------------------|---1--1-2-1-----------------------|
-----2----2--------2-3--|-------------3-2---2--0-----------|
------------------------|------------------------3--2-3-2--|
------------------------|----------------------------------|


                                                                               
-----------------------------------|-----------------------|
------------------------------0----|-------0--3------------|
--------------1--1-2-1------2---2--|---1-2-----------------|
---------2--3----------3-2---------|-----------------------|
-----------------------------------|-----------------------|
---4-0-----------------------------|-----------------------|                                                                          


                                         
|--------------------||
|------------------3-||
|--------------------||
|--------------------||
|--------------------||
|--------------------||


Guitar 3:
E||------------------|--------------------|-----------------------|
B||------------------|--------------------|-----------------------|
G||------------------|--------------------|-----------------------|
D||------------------|------------------2-|---2--------2--2--2----|
A||------------------|--------------------|-----------------------|
E||------------------|--------------------|-----------------------|


                                                                               
---------------------|------------------|------------------|------------------|
---------------------|------------------|------------------|------------------|
---1--1--------------|------------------|------------------|------------------|
---------------------|------------------|------------------|------------------|
---------------------|------------------|------------------|------------------|
---------------------|------------------|------------------|------------------|
                                                                            

                                                              
------------------|---------------------|------0-----------4-|
---------------1--|--3------------0-----|---------0--------6-|
------------------|--4--------0---------|------5--7----------|
------------------|-----------7---6-----|--------------------|
------------------|---------------------|--------------------|
------------------|---------------------|--------------------|


                                                                 
-------7-4--10--10--------|
----6-------12--12--------|
----7---------------------|
--------------------------|
--------------------------|
--------------------------|
                                                                            

                                                                               
|---------------------|
|---------------1--0--|
|------------------2--|
|---------------------|
|---------------------|
|---------------------|


                                                                       
---------------------|------0-----------4---|----1---7-10---10--------|
----------1----------|------1--0--------6---|----3---9-12---12--------|
----------2---1------|---------2------------|-------------------------|
--------------4------|----------------------|-------------------------|
---------------------|----------------------|-------------------------|
---------------------|----------------------|-------------------------|


                                                                            
Guitar 4:
                                                                  
E||--------5-----------|-------------4-7-5----|-----8-----7---------|
B||---------------5----|---6------------------|-----------------9---|
G||--------------------|----------------------|---------------------|
D||--------------------|----------------------|---------------------|
A||--------------------|----------------------|---------------------|
E||--------------------|----------------------|---------------------|


                                                                  
----------------------|-----------7-5-----8-|-------7-----12-----|
-----10---------------|---------9-----------|--------------------|
-------------9-----10-|---------------------|--------------------|
----------------------|---------------------|--------------------|
----------------------|---------------------|--------------------|
----------------------|---------------------|--------------------|

Guitar 5:

E||------------------|------------------|-----------------------|
B||------------------|------------------|-----------0--1--1---0-|
G||------------------|------------------|---------2-------------|
D||------------------|------------------|-----------------------|
A||------------------|------------------|-----------------------|
E||------------------|------------------|-----------------------|


                                                                          
-----------------------|-----------------------|-------------------------|
-----0---------0-------|-----1----0------------|-----------0--1--1---0---|
---------1---2---------|-------------2--1---2--|---------2---------------|
-----------------------|-----------------------|---2---------------------|
-----------------------|-----------------------|-------------------------|
-----------------------|-----------------------|-------------------------|


                                                                           
-------------------------|---------------------0---|---0--1-0-------------|
---0---------0--------1--|------0---1--3--1-3----3-|----------------------|
-------1---2-------------|-------------------------|----------------------|
-------------------------|-------------------------|----------------------|
-------------------------|-------------------------|----------------------|
-------------------------|-------------------------|----------------------|

Comments