Sondre Lerche - Two Way Monologue Chords & Tabs

 

Two Way Monologue Chords & Tabs

Sondre Lerche Chords & Tabs

Version: 1 Type: Tab 0 ratings
1 star 2 stars 3 stars 4 stars 5 stars
comments

Two Way Monologue Tab

--------------------------------------------------------------------------
                      Two Way Monologue - Sondre Lerche
--------------------------------------------------------------------------
Tabbed by: Andrew Modelski
Email: Andrew.Modelski@pomona.edu

Tuning: Standard

e|-------------------------------------------|
B|-----2-----2--------2-----2-----2-----2----|
G|-----2-----2--------2-----2-----2-----2----|
D|--------2--------------2-----------2-------|   repeat until
A|--0--------------------------0-------------|
E|-------------------------------------------|

----------------------|
----------------------|
-----2-----2----------|
-----4-----4----------|   repeat until
--4-----4-------------|
----------------------|
[ Tab from: http://www.guitartabs.cc/tabs/s/sondre_lerche/two_way_monologue_tab.html ]
-------------------------|
-----2-----2-------------|
-----2-----2-------------|
--------2----------------|    repeat until
--0----------------------|
-------------------------|

----------------------|
----------------------|
-----2-----2----------|
-----4-----4----------|   repeat until
--4-----4-------------|
----------------------|

------------------------------------------------------------|
-----5------5-----3-----3-----3-----3-----3-----3-----3--3--|
-----6------6-----4-----4-----4-----4-----4-----4-----4--4--|
--4------4-----2-----2-----0-----0-----0-----0-----4-----5--|
------------------------------------------------------------|
------------------------------------------------------------|

--------------------------------------|
-----3-----3-----3-----3--------------|
-----4-----4-----4-----4--1-----------|
--2-----0-----2-----0-----2-----------|
--------------------------------------|
--------------------------------------|
Comments