Sonata Arctica - White Pearl Black Oceans Chords & Tabs

 

White Pearl Black Oceans Chords & Tabs

Sonata Arctica Chords & Tabs

Version: 1 Type: Tab 0 ratings
1 star 2 stars 3 stars 4 stars 5 stars
comments

White Pearl Black Oceans Tab

   
-----------------------------------------------------------------
WHITE PEARL, BLACK OCEANS - SONATA ARCTICA
-----------------------------------------------------------------
Tabbed by: Dan Crutchington
Email: dancrutchington@hotmail.com

Tuning: E FLAT

Yet another great song, by an amazing band!

e|--------------------|-----------------------------------------------|
B|--(Keyboard intro)--|-----------------------------------------------|
G|------(41 secs)-----|--7----7-------------------3----5--------------|
D|--------------------|--7----7----7----3----2----3----5----3----7----|
A|--------------------|--5----5----7----3----3----1----3----3----7----|
E|--------------------|------------5----1----0--------------1----5----|

e|----------------------------------------------------|
B|----------------------------------------------------|
G|--7----7-------------------3----5--------------7----|
D|--7----7----7----3----2----3----5----3----7----7----|
A|--5----5----7----3----3----1----3----3----7----5----|
E|------------5----1----0--------------1----5---------|

e|---------------------------------------------------------|
B|----------6-------------------------6--------------------|
G|-----------------------10------------------------10------|
D|------7-----------10------------7-----------10-----------|
A|--5-----------8-------------5-----------8----------------|
E|---------------------------------------------------------|


e|---------------------------------------------------------|
B|----------3-----------------------3----------------------|
G|----------------------7----------------------------------|
D|------------------------------------------8-------10-----|
A|------5-----------8-----------5--------------------------|
E|--3-----------6-----------3-----------6-------8----------|


e|---------------------------------------------------------|
B|----------6-------------------------6--------------------|
G|-----------------------10------------------------10------|
D|------7-----------10------------7-----------10-----------|
A|--5-----------8-------------5-----------8----------------|
E|---------------------------------------------------------|


e|---------------------------------------------------------|
B|----------3-----------------------3-----------6----------|
G|----------------------7----------------------------------|
D|------------------------------------------5--------------|
A|------5-----------8-----------5-------3------------------|
E|--3-----------6-----------3------------------------------|


e|----------------------1-----------1-----------1-----------1----|
B|----------5----------------------------------------------------|
G|------------------------------------------2-----------2--------|
D|------5-----------3-----------3-------0-----------0------------|
A|--3-----------1-----------1------------------------------------|
E|---------------------------------------------------------------|


e|---------------------------------------------------------------|
B|----------------------------------1----------------------------|
G|----------0-----------------------------------5----------------|
D|------3---------------5-------------------5--------------------|
A|--1---------------5-----------3-------3------------------------|
E|--------------3-----------1------------------------------------|

e|---------------------------------------------------|
B|---------------------------------------------------|
G|--7------------------7-----10----------------10----|
D|--7------------------7-----10----------------10----|
A|--5--5--5--5--5-5-5--5--5--8--8--8--8--8--8--8--8--|
E|---------------------------------------------------|
       ^  ^  ^  ^ ^ ^     ^     ^  ^  ^  ^  ^     ^
e|-----------------------------------------------------|
B|-----------------------------------------------------|
G|--7--------------------7-----10----------------10----|
D|--7--------------------7-----10----------------10----|
A|--5--5--5--5--5--5--5--5--5--8--8--8--8--8--8--8--8--|
E|-----------------------------------------------------|
       ^  ^  ^  ^  ^  ^     ^     ^  ^  ^  ^  ^     ^
e|---------------------------------------------------|
B|---------------------------------------------------|
G|---------------------------------------------------|
D|--5-----------------5-----8-----------------8------|
A|--5-----------------5-----8-----------------8------|
E|--3--3--3--3--3--3--3--3--6--6--6--6--6--6--6--6---|
       ^  ^  ^  ^  ^     ^     ^  ^  ^  ^  ^     ^
e|-----------------------------------------------------|
B|-----------------------------------------------------|
G|-----------------------------------------------------|
D|--5-----------------5-----8--8--8--8--10-10-10-10----|
A|--5-----------------5-----8--8--8--8--10-10-10-10----|
E|--3--3--3--3--3--3--3--3--6--6--6--6--8--8--8--8-----|
       ^  ^  ^  ^  ^     ^ 
e|-----------------------------------------------------|
B|-----------------------------------------------------|
G|--7--------------------7-----10----------------10----|
D|--7--------------------7-----10----------------10----|
A|--5--5--5--5--5--5--5--5--5--8--8--8--8--8--8--8--8--|
E|-----------------------------------------------------|
       ^  ^  ^  ^  ^  ^     ^     ^  ^  ^  ^  ^     ^
e|-----------------------------------------------------|
B|-----------------------------------------------------|
G|--7--------------------7-----10----------------10----|
D|--7--------------------7-----10----------------10----|
A|--5--5--5--5--5--5--5--5--5--8--8--8--8--8--8--8--8--|
E|-----------------------------------------------------|
       ^  ^  ^  ^  ^  ^     ^     ^  ^  ^  ^  ^     ^
e|---------------------------------------------------|
B|---------------------------------------------------|
G|---------------------------------------------------|
D|--5-----------------5-----8-----------------8------|
A|--5-----------------5-----8-----------------8------|
E|--3--3--3--3--3--3--3--3--6--6--6--6--6--6--6--6---|
       ^  ^  ^  ^  ^     ^     ^  ^  ^  ^  ^     ^

e|-----------------------------------------------------------|
B|-----------------------------------------------------------|
G|---------------------------5#-------5----5---------8----7--|
D|--5-----------------5------5#-------5----5----5----8----8--|
A|--5-----------------5------3#-------3----3----5----6----5--|
E|--3--3--3--3--3--3--3--3------------3----3----3------------|

e|-----------------------------------------------------------|
B|-----------------------------------------------------------|
G|------------8---------3#------7#---------------------------|
D|--6----8----8----5----3#------7#-------5#------------------|
A|--6----8----6----5----1#------5#-------5#------------------|
E|--4----6---------3---------------------3#------------------|

e|--------------------------------------------------------------------|
B|--------------------------------------------------------------------|
G|-------3----5----3--3-------------------3----5----3--3--------------|
D|--5----3----5----3--3----3----3----5----3----5----3--3----3----3----|
A|--5----1----3----1--1----3----3----5----1----3----1--1----3----3----|
E|--3----------------------1----1----3----------------------1----1----|

e|--------------------------------------------------------------------|
B|--------------------------------------------------------------------|
G|-------3----5----3--3-------------------3----5----3--3--------------|
D|--5----3----5----3--3----3----3----5----3----5----3--3----3----3----|
A|--5----1----3----1--1----3----3----5----1----3----1--1----3----3----|
E|--3----------------------1----1----3----------------------1----1----|

e|-------------------------------------------------------------------------------
B|-------------------------------------------------------------------------------
G|-------------------------------------------------------------------------------
D|--5--------------5--------------5--------8--------------8--------------8-------
A|--5--------------5--------------5--------8--------------8--------------8-------
E|--3--3--3--3--3--3--3--3--3--3--3--3--3--6--6--6--6--6--6--6--6--6--6--6--6--6-
       ^  ^  ^  ^     ^  ^  ^  ^     ^  ^     ^  ^  ^  ^     ^  ^  ^  ^     ^  ^  
e|-------------------------------------------------------------------------------
B|-------------------------------------------------------------------------------
G|-------------------------------------------------------------------------------
D|--5--------------5--------------5--------8--------------8--------------8-------
A|--5--------------5--------------5--------8--------------8--------------8-------
E|--3--3--3--3--3--3--3--3--3--3--3--3--3--6--6--6--6--6--6--6--6--6--6--6--6--6-
       ^  ^  ^  ^     ^  ^  ^  ^     ^  ^     ^  ^  ^  ^     ^  ^  ^  ^     ^  ^         
e|-------------------------------------------------------------------------------
B|-------------------------------------------------------------------------------
G|--5--------------5--------------5--------8--------------8--------------8-------
D|--5--------------5--------------5--------8--------------8--------------8-------
A|--3--3--3--3--3--3--3--3--3--3--3--3--3--6--6--6--6--6--6--6--6--6--6--6--6--6-
E|-------------------------------------------------------------------------------
       ^  ^  ^  ^     ^  ^  ^  ^     ^  ^     ^  ^  ^  ^     ^  ^  ^  ^     ^  ^      
e|----------------------------------------------------
B|----------------------------------------------------
G|--5--------------5--------------5--------8----10----
D|--5--------------5--------------5--------8----10----
A|--3--3--3--3--3--3--3--3--3--3--3--3--3--6----8-----
E|----------------------------------------------------
       ^  ^  ^  ^     ^  ^  ^  ^     ^  ^         
e|-------------------------------------------------------------------------------
B|-------------------------------------------------------------------------------
G|-------------------------------------------------------------------------------
D|--5--------------5--------------5--------8--------------8--------------8-------
A|--5--------------5--------------5--------8--------------8--------------8-------
E|--3--3--3--3--3--3--3--3--3--3--3--3--3--6--6--6--6--6--6--6--6--6--6--6--6--6-
       ^  ^  ^  ^     ^  ^  ^  ^     ^  ^     ^  ^  ^  ^     ^  ^  ^  ^     ^  ^  
e|-------------------------------------------------------------------------------
B|-------------------------------------------------------------------------------
G|-------------------------------------------------------------------------------
D|--5--------------5--------------5--------8--------------8--------------8-------
A|--5--------------5--------------5--------8--------------8--------------8-------
E|--3--3--3--3--3--3--3--3--3--3--3--3--3--6--6--6--6--6--6--6--6--6--6--6--6--6-
       ^  ^  ^  ^     ^  ^  ^  ^     ^  ^     ^  ^  ^  ^     ^  ^  ^  ^     ^  ^   
e|-------------------------------------------------------------------------------
B|-------------------------------------------------------------------------------
G|--5--------------5--------------5--------8--------------8--------------8-------
D|--5--------------5--------------5--------8--------------8--------------8-------
A|--3--3--3--3--3--3--3--3--3--3--3--3--3--6--6--6--6--6--6--6--6--6--6--6--6--6-
E|-------------------------------------------------------------------------------
       ^  ^  ^  ^     ^  ^  ^  ^     ^  ^     ^  ^  ^  ^     ^  ^  ^  ^     ^  ^      
e|--------------------------------------------
B|--------------------------------------------
G|--5--------------5--------------5--------3--
D|--5--------------5--------------5--------3--
A|--3--3--3--3--3--3--3--3--3--3--3--3--3--1--
E|--------------------------------------------
       ^  ^  ^  ^     ^  ^  ^  ^     ^  ^         
e|---------------------------------------------------|
B|---------------------------------------------------|
G|-------5----5---------8----7--------------8--------|
D|--3----5----5----5----8----8----6----8----8----5---|
A|--3----3----3----5----6----5----6----8----6----5---|
E|--1----3----3----3--------------4----6---------3---|
[ Tab from: http://www.guitartabs.cc/tabs/s/sonata_arctica/white_pearl_black_oceans_tab.html ]
e|----------------------------------------------------|
B|----------------------------------------------------|
G|----------------------------------------------------|
D|--5--------5--------5-----8-----8--------8----------|
A|--5--------5--------5-----8-----8--------8----------|
E|--3--3--3--3--3--3--3--3--6--6--6--6--6--6--6--6----|
       ^  ^     ^  ^     ^     ^     ^  ^     ^  ^
e|----------------------------------------------------|
B|----------------------------------------------------|
G|----------------------------------------------------|
D|--5--------5--------5-----8-----8--------8----------|
A|--5--------5--------5-----8-----8--------8----------|
E|--3--3--3--3--3--3--3--3--6--6--6--6--6--6--6--6----|
       ^  ^     ^  ^     ^     ^     ^  ^     ^  ^
e|----------------------------------------------------|
B|----------------------------------------------------|
G|--5--------5--------5-----8-----8--------8----------|
D|--5--------5--------5-----8-----8--------8----------|
A|--3--3--3--3--3--3--3--3--6--6--6--6--6--6--6--6----|
E|----------------------------------------------------|
       ^  ^     ^  ^     ^     ^     ^  ^     ^  ^
e|---------------------------------------|
B|---------------------------------------|
G|--5--------5--------5-------8----10----|
D|--5--------5--------5-------8----10----|
A|--3--3--3--3--3--3--3--3----6----8-----|
E|---------------------------------------|
       ^  ^     ^  ^     ^  
e|----------------------------------------------------|
B|----------------------------------------------------|
G|----------------------------------------------------|
D|--5--------5--------5-----8-----8--------8----------|
A|--5--------5--------5-----8-----8--------8----------|
E|--3--3--3--3--3--3--3--3--6--6--6--6--6--6--6--6----|
       ^  ^     ^  ^     ^     ^     ^  ^     ^  ^
e|----------------------------------------------------|
B|----------------------------------------------------|
G|----------------------------------------------------|
D|--5--------5--------5-----8-----8--------8----------|
A|--5--------5--------5-----8-----8--------8----------|
E|--3--3--3--3--3--3--3--3--6--6--6--6--6--6--6--6----|
       ^  ^     ^  ^     ^     ^     ^  ^     ^  ^
e|-------------------------------------------------------------------------------
B|-------------------------------------------------------------------------------
G|--5--------------5--------------5--------8--------------8--------------8-------
D|--5--------------5--------------5--------8--------------8--------------8-------
A|--3--3--3--3--3--3--3--3--3--3--3--3--3--6--6--6--6--6--6--6--6--6--6--6--6--6-
E|-------------------------------------------------------------------------------
       ^  ^  ^  ^     ^  ^  ^  ^     ^  ^     ^  ^  ^  ^     ^  ^  ^  ^     ^  ^ 
e|-------------------------------------------------
B|-------------------------------------------------
G|--5--------------5--------------5----------------
D|--5--------------5--------------5--------3----5--
A|--3--3--3--3--3--3--3--3--3--3--3--3--3--3----5--
E|-----------------------------------------1----3--
       ^  ^  ^  ^     ^  ^  ^  ^     ^  ^       
e|-------------------------------------------------
B|-------------------------------------------------
G|--5--------------5--------------5----------------
D|--5--------------5--------------5--------3----5--
A|--3--3--3--3--3--3--3--3--3--3--3--3--3--3----5--
E|-----------------------------------------1----3--
       ^  ^  ^  ^     ^  ^  ^  ^     ^  ^       
e|-------------------------------------------------------------|
B|-------------------------------------------------------------|
G|--8----7--------------5--------------5--------------5--------|
D|--8----8----3----4----5--------------5--------------5--------|
A|--6----5----3----5----3--3--3--3--3--3--3--3--3--3--3--3--3--|
E|------------1----2-------------------------------------------|
                           ^  ^  ^  ^     ^  ^  ^  ^     ^  ^ 
e|------------------------------------------------|
B|------------------------------------------------|
G|------------8----7----10---11----5----5---------|
D|--3----5----8----8----10---12----5----5----5----|
A|--3----5----6----5----8----9-----3----3----5----|
E|--1----3-------------------------3----3----3----|

e|-----------------------------------------------|
B|-----------------------------------------------|
G|--8----7--------------8---------5----5---------|
D|--8----8----6----8----8----5----5----5----5----|
A|--6----5----6----8----6----5----3----3----5----|
E|------------4----6---------3----3----3----3----|


e|--------------------------------|
B|--------------------------------|
G|--8----7--------------8---------|
D|--8----8----6----8----8----5----|
A|--6----5----6----8----6----5----|
E|------------4----6---------3----|

e|-----------------------------------------------------------------------------|
B|-----------------------------------------------------------------------------|
G|--7--------------7--------------7--------7--------7--------------------------|
D|--7--------------7--------------7--------7--------7--------7--------7--------|
A|--5--5--5--5--5--5--5--5--5--5--5--5--5--5--5--5--5--5--5--7--------7--------|
E|-----------------------------------------------------------5--5--5--5--5--5--|
       ^  ^  ^  ^     ^  ^  ^  ^     ^  ^     ^  ^     ^  ^     ^  ^     ^  ^
e|----------------------------------------------------------------------------------|
B|----------------------------------------------------------------------------------|
G|--10-------------10--9-----------------9------------------------------------------|
D|--10-------------10--10----------------10--8--------------8--------------10-------|
A|--8--8--8--8--8--8---7--7--7--7--7--7--7---8--------------8--------------10-------|
E|-------------------------------------------6--6--6--6--6--6--6--6--6--6--8--8--8--|
       ^  ^  ^  ^         ^  ^  ^  ^  ^         ^  ^  ^  ^     ^  ^  ^  ^     ^  ^
e|----------------------------------------------------------------------------------|
B|----------------------------------------------------------------------------------|
G|--10-------------10--------------10-----------------------------------------------|
D|--10-------------10--------------10--------7--------------7--------------7--------|
A|--8--8--8--8--8--8---8--8--8--8--8---8--8--7--------------7--------------7--------|
E|-------------------------------------------5--5--5--5--5--5--5--5--5--5--5--5--5--|
       ^  ^  ^  ^         ^  ^  ^  ^  ^         ^  ^  ^  ^     ^  ^  ^  ^     ^  ^

e|-----------------------------------------------------------------------------|
B|-----------------------------------------------------------------------------|
G|--7--------------7--------------7--------7--------7--------------------------|
D|--7--------------7--------------7--------7--------7--------7--------7--------|
A|--5--5--5--5--5--5--5--5--5--5--5--5--5--5--5--5--5--5--5--7--------7--------|
E|-----------------------------------------------------------5--5--5--5--5--5--|
       ^  ^  ^  ^     ^  ^  ^  ^     ^  ^     ^  ^     ^  ^     ^  ^     ^  ^

e|----------------------------------------------------------------------------------|
B|----------------------------------------------------------------------------------|
G|--10-------------10--9-----------------9------------------------------------------|
D|--10-------------10--10----------------10--8--------------8--------------10-------|
A|--8--8--8--8--8--8---7--7--7--7--7--7--7---8--------------8--------------10-------|
E|-------------------------------------------6--6--6--6--6--6--6--6--6--6--8--8--8--|
       ^  ^  ^  ^         ^  ^  ^  ^  ^         ^  ^  ^  ^     ^  ^  ^  ^     ^  ^
e|-----------------------------------------------------------------------------------|
B|-----------------------------------------------------------------------------------|
G|--10-------------10-------------10----------------------------------------------7--|
D|--10-------------10-------------10-------7--------------7--------------7--------7--|
A|--8--8--8--8--8--8--8--8--8--8--8--8--8--7--------------7--------------7--------5--|
E|-----------------------------------------5--5--5--5--5--5--5--5--5--5--5--5--5-----|
       ^  ^  ^  ^     ^  ^  ^  ^     ^  ^     ^  ^  ^  ^     ^  ^  ^  ^     ^  ^
e|-----------------------|---------------------------|
B|-----------------------|---------------------------|
G|--(Keyboard Interlude)-|--7------------------------|
D|-----(19 Seconds)------|--7------------------------|
A|-----------------------|--5--5--5--5-5-5--5-5-5----|
E|-----------------------|---------------------------|
                               ^  ^  ^ ^ ^  ^ ^ ^
e|-----------------------------------------------------------------------|
B|-----------------------------------------------------------------------|
G|--8---------------------------------------------7----------------------|
D|--8----------------------7----------------------7---------8------------|
A|--6--6--6--6-6-6--6-6-6--7----------------------5--5--5-5-8------------|
E|-------------------------5--5--5--5-5-5--5-5-5------------6--6--6-6----|
       ^  ^  ^ ^ ^  ^ ^ ^     ^  ^  ^ ^ ^  ^ ^ ^     ^  ^ ^    ^  ^ ^
e|-----------------------------------------------------------|
B|-----------------------------------------------------------|
G|--8---------------------------------------------7-----7----|
D|--8----------------------7----------------------7--7--7----|
A|--6--6--6--6-6-6--6-6-6--7----------------------5--7--5----|
E|-------------------------5--5--5--5-5-5--5-5-5-----5-------|
       ^  ^  ^ ^ ^  ^ ^ ^     ^  ^  ^ ^ ^  ^ ^ ^ 
e|-------------------------------------------------------------------------|
B|-------------------------------------------------------------------------|
G|--7----------------------8-----------------------------------------------|
D|--7----------------------8----------------------7------------------------|
A|--5--5--5--5-5-5--5-5-5--6--6--6--6-6-6--6-6-6--7------------------------|
E|------------------------------------------------5--5--5--5-5-5--5-5-5----|
       ^  ^  ^ ^ ^  ^ ^ ^     ^  ^  ^ ^ ^  ^ ^ ^     ^  ^  ^ ^ ^  ^ ^ ^
e|------------------------------------------------------------------------|
B|------------------------------------------------------------------------|
G|--7---------------------8-----------------------------------------------|
D|--7----------8----------8----------------------7------------------------|
A|--5--5--5-5--8----------6--6--6--6-6-6--6-6-6--7------------------------|
E|-------------6--6--6-6-------------------------5--5--5--5-5-5--5-5-5----|
        ^  ^ ^    ^  ^ ^     ^  ^  ^ ^ ^  ^ ^ ^     ^  ^  ^ ^ ^  ^ ^ ^
e|-------------------------------------------------------------------------------------------------|
B|-------------------------------------------------------------------------------------------------|
G|--7---------7---------6----7--------------7----5--------------6----7--------------7----5---------|
D|--7----7----7----7----6----7----5----7----7----5----3----7----6----7----5----7----7----5----5----|
A|--5----7----5----7----4----5----5----7----5----3----3----7----4----5----5----7----5----3----5----|
E|-------5---------5--------------3----5--------------1----5--------------3----5--------------3----|

e|-----------------------------------------------------------------|
B|-----------------------------------------------------------------|
G|-----------------------------------------------------------------|
D|--5----8----10----8--8----3#----5----8----10----8--8----10#------|
A|--5----8----10----8--8----3#----5----8----10----8--8----10#------|
E|--3----6----8-----6--6----1#----3----6----8-----6--6----8#-------|

e|-----------------------------------------------------------------|
B|-----------------------------------------------------------------|
G|-----------------------------------------------------------------|
D|--5----8----10----8--8----3#----5----8----10----8--8----10#------|
A|--5----8----10----8--8----3#----5----8----10----8--8----10#------|
E|--3----6----8-----6--6----1#----3----6----8-----6--6----8#-------|

e|-----------------------------------------------------------------|
B|-----------------------------------------------------------------|
G|--5----8----10----8--8----3#----5----8----10----8--8----10#------|
D|--5----8----10----8--8----3#----5----8----10----8--8----10#------|
A|--3----6----8-----6--6----1#----3----6----8-----6--6----8#-------|
E|-----------------------------------------------------------------||

e|-----------------------------------------------------------------------------|
B|-----------------------------------------------------------------------------|
G|--7--------------7--------------7--------7--------7--------------------------|
D|--7--------------7--------------7--------7--------7--------7--------7--------|
A|--5--5--5--5--5--5--5--5--5--5--5--5--5--5--5--5--5--5--5--7--------7--------|
E|-----------------------------------------------------------5--5--5--5--5--5--|
       ^  ^  ^  ^     ^  ^  ^  ^     ^  ^     ^  ^     ^  ^     ^  ^     ^  ^
e|----------------------------------------------------------------------------------|
B|----------------------------------------------------------------------------------|
G|--10-------------10--9-----------------9------------------------------------------|
D|--10-------------10--10----------------10--8--------------8--------------10-------|
A|--8--8--8--8--8--8---7--7--7--7--7--7--7---8--------------8--------------10-------|
E|-------------------------------------------6--6--6--6--6--6--6--6--6--6--8--8--8--|
       ^  ^  ^  ^         ^  ^  ^  ^  ^         ^  ^  ^  ^     ^  ^  ^  ^     ^  ^
e|----------------------------------------------------------------------------------|
B|----------------------------------------------------------------------------------|
G|--10-------------10--------------10-----------------------------------------------|
D|--10-------------10--------------10--------7--------------7--------------7--------|
A|--8--8--8--8--8--8---8--8--8--8--8---8--8--7--------------7--------------7--------|
E|-------------------------------------------5--5--5--5--5--5--5--5--5--5--5--5--5--|
       ^  ^  ^  ^         ^  ^  ^  ^  ^         ^  ^  ^  ^     ^  ^  ^  ^     ^  ^
e|-----------------------------------------------------------------------------|
B|-----------------------------------------------------------------------------|
G|--7--------------7--------------7--------7--------7--------------------------|
D|--7--------------7--------------7--------7--------7--------7--------7--------|
A|--5--5--5--5--5--5--5--5--5--5--5--5--5--5--5--5--5--5--5--7--------7--------|
E|-----------------------------------------------------------5--5--5--5--5--5--|
       ^  ^  ^  ^     ^  ^  ^  ^     ^  ^     ^  ^     ^  ^     ^  ^     ^  ^
e|----------------------------------------------------------------------------------|
B|----------------------------------------------------------------------------------|
G|--10-------------10--9-----------------9------------------------------------------|
D|--10-------------10--10----------------10--8--------------8--------------10-------|
A|--8--8--8--8--8--8---7--7--7--7--7--7--7---8--------------8--------------10-------|
E|-------------------------------------------6--6--6--6--6--6--6--6--6--6--8--8--8--|
       ^  ^  ^  ^         ^  ^  ^  ^  ^         ^  ^  ^  ^     ^  ^  ^  ^     ^  ^
e|----------------------------------------------------------------------------------------|
B|----------------------------------------------------------------------------------------|
G|--10-------------10--------------10-----------------------------------------------7#----|
D|--10-------------10--------------10--------7--------------7--------------7--------7#----|
A|--8--8--8--8--8--8---8--8--8--8--8---8--8--7--------------7--------------7--------5#----|
E|-------------------------------------------5--5--5--5--5--5--5--5--5--5--5--5--5--------|
       ^  ^  ^  ^         ^  ^  ^  ^  ^         ^  ^  ^  ^     ^  ^  ^  ^     ^  ^
e|-------------------------------------------------------------------------|
B|-------------------------------------------------------------------------|
G|--7----------------------8-----------------------------------------------|
D|--7----------------------8----------------------7------------------------|
A|--5--5--5--5-5-5--5-5-5--6--6--6--6-6-6--6-6-6--7------------------------|
E|------------------------------------------------5--5--5--5-5-5--5-5-5----|
       ^  ^  ^ ^ ^  ^ ^ ^     ^  ^  ^ ^ ^  ^ ^ ^     ^  ^  ^ ^ ^  ^ ^ ^
e|-------------------------------------------------------------------------------------|
B|-------------------------------------------------------------------------------------|
G|--7---------------------8------------------------------------------------------------|
D|--7----------8----------8----------------------7------------------------5----7----5--|
A|--5--5--5-5--8----------6--6--6--6-6-6--6-6-6--7------------------------5----7----5--|
E|-------------6--6--6-6-------------------------5--5--5--5-5-5--5-5-5---------5-------|
        ^  ^ ^    ^  ^ ^     ^  ^  ^ ^ ^  ^ ^ ^     ^  ^  ^ ^ ^  ^ ^ ^
e|-------------------------------------------------------------------------|
B|-------------------------------------------------------------------------|
G|--7----------------------8-----------------------------------------------|
D|--7----------------------8----------------------7------------------------|
A|--5--5--5--5-5-5--5-5-5--6--6--6--6-6-6--6-6-6--7------------------------|
E|------------------------------------------------5--5--5--5-5-5--5-5-5----|
       ^  ^  ^ ^ ^  ^ ^ ^     ^  ^  ^ ^ ^  ^ ^ ^     ^  ^  ^ ^ ^  ^ ^ ^
e|----------------(Fade Out Slowly)--------------|
B|-----------------------------------------------|
G|--7---------------------8----------------------|
D|--7----------8----------8----------------------|
A|--5--5--5-5--8----------6--6--6--6-6-6--6-6-6--|
E|-------------6--6--6-6-------------------------|
        ^  ^ ^    ^  ^ ^     ^  ^  ^ ^ ^  ^ ^ ^  


| / slide up
| \ slide down
| h hammer-on
| p pull-off
| ~ vibrato
| + harmonic
| x Mute note 
| ^ Palm Mute
| # Let Ring
Comments