Sonata Arctica - Weballergy Chords & Tabs

 

Weballergy Chords & Tabs

Sonata Arctica Chords & Tabs

Version: 2 Type: Tab 0 ratings
1 star 2 stars 3 stars 4 stars 5 stars
comments

Weballergy Tab

   
*********************************************************
* SONATA ARCTICA - WEBALLERGY (From the ALBUM: SILENCE) *
*********************************************************
 Music and Words By: Sonata Arctica/T.Kakko

Transcribed By: Niclas Buss
Day tabbed: 2.10.2001
Homepage: http://www.metalprovider.com/thedarktower/enter.htm
email: thetabber@yahoo.se

Please mail me if you can find mistakes!

-------------------------------------------

 Tune down 1/2 step!

  Intro                                                           end Intro    Verse
E---------------------------------------------------------------------------||------|
B-------------------------------4--3---------------------------------4--3~--||------|
G---8----3----5-----------------3--3--/--8----3----5-----------------3--3~--||*--2--|
D---8----3----5----6-------3----3--3--/--8----3----5----6-------3----3--3~--||*--2--|
A---6----1----3----6-------3----1--1--/--6----1----3----6-------3----1--1~--||---0--|
E------------------4--\3~--1----------------------------4--\3~--1-----------||------|

 1                                               x2   Bridge
E-----------------------------------------------------------------------------------|
B---------------------------------------------------|-------------------------------|
G------------5--\--4---2-----5-----------5--\--4---*|-------------------------------|
D--2----3----5--\--5---2-----5-----5-----5--\--5---*|----------------------4--------|
A--2----3----3--\--2---0-----3-----5-----3--\--2----|--2-2-2-5p2-2-2-2-2-2---2-7p2-5|
E--0----1--------------------------3------------------------------------------------|
                                                      pm............................

E-----------------------------------------------------------------------------------|
B-----------------------------------------------------------------------------------|
G------------------------------------------------------------------------7---------\|
D-------------------------------------/-0-0-0-4p0-0-0-0-0-0-7p0-5p0-4p0--7---------\|
Ap2-\-0-0-0-0-0-0-0-0-0-0-0-0-0-0-0-0------------------------------------5--5-5-5--\|
E-----------------------------------------------------------------------------------|
 ......................................................................|   pm....|

E-----------------------------------------------------------------------------------|
B-----------------------------------------------------------------------------------|
G-7---------------------------------------------------------------------------------|
D-6---------------------------------4-----------------------------------------/-0-0-|
A-4--4-4-4--\-2-2-2-0h2-2-2-2-5p2-2---2-7p2-5p2-\-0-0-0-0-0-0-4p0-0-0-5p0-0-0-------|
E-----------------------------------------------------------------------------------|
    pm..............................................................................

                                                                Chorus
E-----------------------------------------------------------------------------------|
B--------------------------------------|-----------|----------|---------------------|
G--------------------------------------|--Verse-2--|--Bridge--|---5-----------------|
D-0-4p0-7p0-0-0-7p0-4p0-2p0---2----5---|-----------|----------|---5-----5-----7-----|
A-----------------------------2----5---|-----------|----------|---3-----5-----7-----|
E-----------------------------0----3------------------------------------3-----5-----|
 ..........................|
                                                                       Interlude
E-----------------------------------------------------------------------------------|
B--------------------------------------------------------------------|--------------|
G--/-10---9-----7----5--4--/--5--------------/-10---9----7----5--4---|--------------|
D--/-10---10----7----5--5--/--5----5-----7---/-10---10---7----5--5---|--------------|
A--/--8---7-----5----5--5--/--3----5-----7---/--8---7----5----5--5---|--------------|
E--------------------3--3----------3-----5--------------------3--3------5-4-2-0-2\--|
                                                                       pm...........

E-----------------------------------------------------------------------------------|
B-----------------------------------------------------------------------------------|
G-----------------------------------------------------------------------------------|
D-----------------------------------------------------------------------------------|
A-----------------------------------------------------------------------------------|
E-5-4-2-2-7\--5-4-2-5-4-2-5-4-2-/7-5-4--9-7-5-4-5\--9-7-5-5-10\--9-7-5-9-7-5-9-7-5/7|
 ...................................................................................

E-----------------------------------------------------------------------------------|
B-----------------------------------------------------------------------------------|
G-----------------------------------------------------------------------------------|
D-----------------------------------------------------------------------------------|
A-----------------------------------------------------------------------------------|
E-5-4-/-5-4-2-0-2\--5-4-2-2-7\--5-4-2-5-4-2-5-4-2-/7-5-4--9-7-5-4-5\--9-7-5-5-10\--9|
 ...................................................................................

                         Guitar Solo 1
E-------------------------------------------------------19--b(20)-(20)~---r19-17-19-|
B----------------------|----------14h15---------19-\-17-----------------------------|
G----------------------|----------------14-/-16-------------------------------------|
D------------------8~--|-------16---------------------------------------------------|
A------------------9~--|--/-14------------------------------------------------------|
E-7-5-9-7-5-9-7-5--6~---------------------------------------------------------------|
 ................|
 
E20-19-17---------------------------------------------------------------------------|
B---------20-19-17----------------------------------17-19-20-19-17------------------|
G------------------19-17-16----------------16-17-19----------------19-17-16---------|
D---------------------------19-17-16-17-19----------------------------------19-17-16|
A-----------------------------------------------------------------------------------|
E-----------------------------------------------------------------------------------|

E-----------------------------------------------------------------------------------|
B-------------------------------------------------------------------------7/8h10h12h|
G------------------------------18b(19)-r18-18~--\-11-13b(14)--r13p11h13~------------|
D----------------16-17-19-16~-------------------------------------------------------|
A-19-17-16-17-19--------------------------------------------------------------------|
E-----------------------------------------------------------------------------------|
[ Tab from: http://www.guitartabs.cc/tabs/s/sonata_arctica/weballergy_tab_ver_2.html ]
E-T---------------------------------------------------------------------------------|
B15p12p10p8\7h8p7-------------------------------------------------------------------|
G-----------------5h7h9p7p5-----------5h7p5-----------------------------------------|
D---------------------------9p7p5h7h9-------9p7p5h7h9p7p5---------------------------|
A---------------------------------------------------------9p7p5h7h9p7p5-------------|
E-----------------------------------------------------------------------9p7\5p4p2-\-|

                                                                   Guitar Solo 2
E-----------------------------------------------------------------------------------|
B-------------|-----------------|--------------------------------|---------13~--*\//|
G--Interlude--|--Keyboard-Solo--|--------------------------------|--/-9~------------|
D-------------|-----------------|-----------------------------4--|------------------|
A-------------|-----------------|------------------2-------4-----|------------------|
E----------------------------------2-2-2-4\--2-2-2---2--5---------------------------|
                                  pm...........................|

E-----------------------------------------------------------------------------------|
B15~--12-------------------------A.H.-----------------------------------------------|
G---------*\//12~--\-9--*\//9~--7-7~---------A.H.-----------------------------------|
D-------------------------------------5-5-/-7-7~---10p9p7----/12p10p9----12p10p9----|
A---------------------------------------------------------10----------12---------12-|
E-----------------------------------------------------------------------------------|

E--------------------------------------------8-7-5----------------------------------|
B--------------------------------------------------8-6-5----------------------------|
G--------------------------5h7-----8p7p5h7~--------------7-5-4----------------------|
D-12p10p9---------7-p5---------5h7-----------------------------7-5-3----------------|
A---------12p10~-------7p5-------------------------------------------7-5-3----------|
E--------------------------------------------------------------------------7-5-3/5h7|

E-----------------------10-12~------------------15-\-10~--17-15-13----------15-13---|
B--------------10h12h13--------------10-*\//12~--------------------17-15-13-------17|
G------------9-----------------\-9~-------------------------------------------------|
D-----7h9h10------------------------------------------------------------------------|
A---7-------------------------------------------------------------------------------|
Eh8---------------------------------------------------------------------------------|

E----------13-----------------------------------------------------------------------|
B-15-13-------17-15-13--------------------------------------------------------------|
G-------16-------------16-14-12-------------------10h12p10--------------------------|
D-------------------------------15-14-12\10h12h14----------14p12p10-----------------|
A-------------------------------------------------------------------14p12p10-/12h14h|
E-----------------------------------------------------------------------------------|

E-----------------------------------------------------------------------------------|
B-----------------------------------------------------------------------------------|
G-----------------------------------------------------------------------------------|
D---12h14h15p14p12----------------------14/15h17h19p17p15\14----------12h14h15-/-19-|
A15----------------15p14p12\10/12h14h15----------------------15p14p12---------------|
E-----------------------------------------------------------------------------------|

E------------------------------------15-/-24-\--------------------------------------|
B---------------------------------15------------15h17-17\15p13p12h13h15p13p12-------|
G-16h19p16---------------12h14h16---------------------------------------------14p12h|
D----------19-\-15p14p12------------------------------------------------------------|
A-----------------------------------------------------------------------------------|
E-----------------------------------------------------------------------------------|

E-----------------------------------------------------------------------------------|
B---12h13h15p13p12------------------------------------------------------------------|
G14----------------14p12p10h12h14p12p10----------------10h12p10---------------------|
D---------------------------------------14p12p10h12h14----------14p12p10------------|
A------------------------------------------------------------------------14p12p10---|
E---------------------------------------------------------------------------------13|

E-----------------------------------------------------------------------------------|
B----------|----------|----------|-----------------------------Gtr.1:---------------|
G----------|--Bridge--|--Chorus--|--------------------------------------------10-11-|
D----------|----------|---(x2)---|-------------------------------------7-/-11-------|
A----------|----------|----------|-----------------------------4-/-8-9---------4-/9-|
Ep12p10-\---------------------------5-4-2-0-2\--5-2-2-2-7\-2-5-Gtr.2:--2----5-------|
                                   pm.....................|

E---------13-14\-----||
B-10-/-14------------||
G--------------------|| end
D--------------------||
A----------4-/9\-----||
E--2---5-------------||

-----------------------------------------------------------------------------------------

  Rhythm Guitar during Guitar & Keyboard Solo 1
E------------------------------------------------||
B------------------------------------------------||
G*--4----5----5----4-----7---7----9-------------*|| x2
D*--4----5----5----4-----7---7----9----5----5---*||
A---2----3----3----2-----5---5----7----5----5----||
E--------------------------------------3----3----||

  Rhythm Guitar during Guitar Solo 2
E-----------------------------------------------------------------------------------|
B-----------------------------------------------------------------------------------|
G-------------5----5--\--4--------------5----5--\--4--------------5----5--\--4----2-|
D---7----5----5----5--\--5----7----5----5----5--\--5----7----5----5----5--\--5----2-|
A---7----5----3----3--\--2----7----5----3----3--\--2----7----5----3----3--\--2----0-|
E---5----3--------------------5----3--------------------5----3----------------------|

E---------------------||
B---------------------||
G-------5----5--------|| end
D--5----5----5----5---||
A--5----3----3----5---||
E--3--------------3---||

-----------------------------------------------------------------------------------------

=======================
=TABLATURE EXPLANATION=
=======================

A.H. = Artificial Harmonic

pm..| = Palm mute

h = hammer on

p = pull off

/ = slide up

\ = slide down

~ = Vibrato

b() = Bend

x\ = Pick Slide

--------
--------
---12--- = Tremolo pick
----/---
----/---
----/---

---.---
--12--- = Staccato
-------
-------
-------

|     |
|     |
|*   *| = repeat from * to *
|*   *| 
|     |
Comments