Sonata Arctica - Weballergy Chords & Tabs

 

Weballergy Chords & Tabs

Sonata Arctica Chords & Tabs

Version: 1 Type: Bass Tab 0 ratings
1 star 2 stars 3 stars 4 stars 5 stars
comments

Weballergy Bass Tab

    Intro                                                         end Intro    Verse

G------------------------------------------------------------------------~--||------|
D------------------------------------------------------------------------~--||*-----|
A---6----1----3------------------1--1--/--6----1----3------------------1--1-||*--0--|
E------------------4--\3~--1------------------------------4--\3~--1---------||------|

                                                        x2   Bridge
G---------------------------------------------------|-------------------------------|
D--------------------------------------------------*|----------------------4--------|
A------------3--\--2---0-----3-----------3--\--2---*|--2-2-2-5p2-2-2-2-2-2---2-7p2-5|
E--0----1--------------------------3----------------|-------------------------------|
                                                      pm............................

G-----------------------------------------------------------------------------------|
D-------------------------------------\-0-0-0-4p0-0-0-0-0-0-7p0-5p0-4p0-------------|
Ap2-\-0-0-0-0-0-0-0-0-0-0-0-0-0-0-0-0------------------------------------5--5-5-5--\|
E-----------------------------------------------------------------------------------|
 ......................................................................|   pm....|

G-----------------------------------------------------------------------------------|
D-----------------------------------4-----------------------------------------\-0-0-|
A-4--4-4-4--\-2-2-2-0h2-2-2-2-5p2-2---2-7p2-5p2-\-0-0-0-0-0-0-4p0-0-0-5p0-0-0-------|
E-----------------------------------------------------------------------------------|
    pm..............................................................................

                                                                    verse
G--------------------------------------|----------------------------------------------------|
D-0-4p0-7p0-0-0-7p0-4p0-2p0------------|---------------------------------------------------*|
A--------------------------------------|--0--------------3--\--2---0-----3-----------3-\--2*|
E-----------------------------0----3---|-------0----1--------------------------3------------|
...........................|
                                                bridge  
G----------------------------------------------------------------------------------------------|
D------------------------4-------------------------------------------\-0-0-0-4p0-0-0-0-0-0-7p0-|
A--2-2-2-5p2-2-2-2-2-2-2---2-7p2-5p2-0-0-0-0-0-0-0-0-0-0-0-0-0-0-0-0---------------------------|
E----------------------------------------------------------------------------------------------|
[ Tab from: http://www.guitartabs.cc/tabs/s/sonata_arctica/weballergy_btab.html ]
G----------------------------------------------------------------------------------------------|
D-5p0-4p0-------------------------------------------------4------------------------------------|
A----------5--5-5-5--\--4--4-4-4--\-2-2-2-0h2-2-2-2-5p2-2---2-7p2-5p2-\-0-0-0-0-0-0-4p0-0-0-5p0|
E----------------------------------------------------------------------------------------------|
                                             chorus
G---------------------------------------|--------------------|
D------\-0-0-0-4p0-7p0-0-0-7p0-4p0-2p0-*|--------------------|
A--0-0---------------------------------*|--3-----------------|
E---------------------------------------|----------3-------5-|
                                                                    Interlude
G--------------------------------------------------------------------|---------------|
D--------------------------------------------------------------------|---------------|
A----8---7-----5-------------3------------------8---7----5-----------|---------------|
E--------------------3--3----------3-----5--------------------3--3---|---5-4-2-0-2\--|
                                                                       pm...........
G-----------------------------------------------------------------------------------|
D-----------------------------------------------------------------------------------|
A-----------------------------------------------------------------------------------|
E-5-4-2-2-7\--5-4-2-5-4-2-5-4-2-/7-5-4--9-7-5-4-5\--9-7-5-5-10\--9-7-5-9-7-5-9-7-5/7|
 ...................................................................................

G-----------------------------------------------------------------------------------|
D-----------------------------------------------------------------------------------|
A-----------------------------------------------------------------------------------|
E-5-4-/-5-4-2-0-2\--5-4-2-2-7\--5-4-2-5-4-2-5-4-2-/7-5-4--9-7-5-4-5\--9-7-5-5-10\--9|
 ...................................................................................

                         Guitar Solo 1  
G-------------------|----------------------intro-------------------------------------|
D-------------------|~---------------------------------------------------------------|
A-------------------|~---------------------------------------------------------------|
E-7-5-9-7-5-9-7-5--6|~---------------------------------------------------------------|
 ...................|
 
                                                              
G-Interlude--|--Keyboard-Solo-------------------------------|-------------------------------|
D------------|---------------------------------------------*|-----------------------------4-|
A------------|--2---3----3----2----5----5----7-------------*|------------------2-------4----|
E-------------------------------------------------3---3-----|-----2-2-2-4\--2-2-2---2--5----|
                                                               pm..........................|
                                          Guitar Solo 2
G------------------------------------intro------------------------------------------|
D-----------------------------------------------------------------------------------|
A-----------------------------------------------------------------------------------|
E-----------------------------------------------------------------------------------|

G----------|--Bridge--|--Chorus--|--------------------------------------------------|
D----------|----------|---(x2)---|--------------------------------------------------|
A----------|----------|----------|-----------------------------4-----9---------4-/9-|
E----------|----------|----------|--5-4-2-0-2\--5-2-2-2-7\-2-5-----2---2----5-------|
                                   pm.....................|

G--------------------|| end
D--------------------||
A----------4-/9------||
E--2---5-------------||

hecha por mi esta tab de bajo me costo muchao asi ke sakenla bien no ma po
merco chile-santiago
mail=maecovalenzuela14@hotmail.com
 pd: estoy haciendo la tab de bajo de forever free
viva chile mierda
Comments