Sonata Arctica - Tallulah Chords & Tabs

 

Tallulah Chords & Tabs

Sonata Arctica Chords & Tabs

Version: 1 Type: Tab 0 ratings
1 star 2 stars 3 stars 4 stars 5 stars
comments

Tallulah Tab

   
 SONATA ARCTICA - TALLULAH 
 

Transcribed By: Juan Pablo Orphanopoulos from Chile


Please mail me if you can find mistakes!
mllon@hotmail.com

-------------------------------------------

 Tune down 1/2 step!

                                       Verse 2 (Gtr enters with clean sound at 1:33)
E------------------------------------------------0--------------------------------0-|
B---------------|--------------------|---------1---1-------1--------3-------------1-|
G--Piano-Intro--|--Verse-1-&-Bridge--|-------2-------2-------2--------4-----------0-|
D----(18-sec)---|----(Piano-&-Voc.)--|-----2-----------2-------2--------5------2----|
A---------------|--------------------|---0---------------0--------2--------\3-------|
E-----------------------------------------------------------------------------------|

E-----------0--0-----------1-----1-----1--1---------------3---------------3---------|
B-----------1----1---------3-----3-----3----3-----------3---3-----------3---3-------|
G-----------0------0----2-----2-----2---------2-------5-------5-------4-------4-----|
D--2-----2------------0-----------------------------5-----------5---5-----------5---|
A-----3-----------------------------------------------------------------------------|
E-----------------------------------------------\-3---------------3-----------------|

E----------0----------------------------------0---------------0--------------1----/3|
B--------1---1--------1--------3------------3---3-----------3---3------------3------|
G------2-------2--------2--------4--------5-------5-------5-------5-------2-----2---|
D----2-----------2--------2--------5----5-----------5---5-----------5---0-----------|
A--0---------------0---------2--------3---------------3-----------------------------|
E-----------------------------------------------------------------------------------|

                                                      Bridge
E-------1-----------------3---------------3--------------------1---1------------3---|
B-3-------3-------------3---3-----------3---3-------|------------1---1------------3-|
G---2-------2---------5-------5-------4-------4-----|------------------2------------|
D-----0-------0-----5-----------5---5-----------5---|-------3-----------------5-----|
A---------------------------------------------------|-----3-----------------5-------|
E---------------\-3---------------3---------------------1-----------------3---------|

E-3--------------0---------------0----------------1---1------------3---3------------|
B---3----------1---1-----------0---0----------------1---1------------3---3----------|
G-----4------2-------2-------2-------2--------------------2----------------4------2-|
D----------2-----------2---2-----------2-------3-----------------5--------------2---|
A--------0---------------0-------------------3-----------------5--------------0-----|
E------------------------------------------1-----------------3----------------------|

E---0---------------0--------------1---1------------3---3----------8--------7-------|
B-1---1-----------0---0--------------1---1------------3---3----------8--------8-----|
G-------2-------2-------2------------------2----------------4----------9--------9---|
D---------2---2-----------2------3----------------5------------/10--------9---------|
A-----------0------------------3----------------5-----------------------------------|
E----------------------------1----------------3-------------------------------------|

E-------------3--------------1---1------------1---1--------------3---------3--------|
B--------1------3--------------1---1------------1---1----------3---3---------3------|
G------2----------4------------------2----------------2------5-------5---------4----|
D----2--------------------3-----------------3--------------5-----------5---------5~-|
A--0--------------------3-----------------3-----------------------------------------|
E-----------3---------1-----------------1----------------3---------------3----------|

  Chorus
E----------0-----------------1----1----1---------------0--------------0---------1---|
B--1----1--1-1---3-----3-----3----3----3-3---1----1----1-1----1----1--1-1-----1---1-|
G--0----0--0-0---4-----4-----2----2----2-2---2----2----2-2----0----0--0-0-----------|
D--2----2--2-2---5-----5-----0----0------0---2----2----2-2----2----2--2-2-/-3-------|
A--3----3--------5-----5---------------------0----0------0----3----3----------------|
E----------------3-----3------------------------------------------------------------|

E--------3-----------0-----3-----------------0------------------3---------1---------|
B------3---3-------1---------3-------1----1--1-1----------------3-----------3-------|
G----------------2-------------4-----0----0--0-0----4--4--4---4-4------2-------2----|
D-/-5--------------------------------2----2--2-2----5--5--5---5-5----0--------------|
A--------------0--------2----------/-3----3---------5--5--5---5-------------------0-|
E---------------------------------------------------3--3--3---3---------------------|

                                                                        Interlude (w
E-----0--------0--------------3------------------------------------------1-------1--|
B---1------------1--------------3-----------1~--------3~--------5~~---|--3-3---3---3|
G-2----------------0--------------4-------0---------2---------4-------|------2------|
D-----------2--------2--------------5-\-3-------/-5-------/-7---------|-------------|
A---------3----------------5------------------------------------------|-------------|
E------------------------3----------------------------------------------------------|

 ith an acoustic guitar that strums the chords)
E--------------1----------------0----------------0--------/-1-------1---------------|
B------------1---1------------1---1------------1---1------/-3-3---3---3------------1|
G-2----------------2--------2-------2--------0-------0----------2-------2-----------|
D---0------3---------3----2-----------2----2-----------2------------------0------3--|
A--------3--------------0----------------3-------------------------------------3----|
E------1---------------------------------------------------------------------1------|
[ Tab from: http://www.guitartabs.cc/tabs/s/sonata_arctica/tallulah_tab.html ]
                                                                   Guitar Solo (Dist.)
E-1----------------0--------/3-----------3-----------1)----1)~----------------------|
B---1------------1---1---------3-------3---3---------1(----1(~---|------------------|
G-----2--------2-------2---------5---5-------4-------3)----2)~---|---7b(9)~~----r-7b|
D-------3----2-----------2---------5-----------5~~---3(----3(~---|------------------|
A----------0-----------------------------------------------------|------------------|
E-----------------------------------------------------------------------------------|

E-----------------------------------------------------------------------------------|
B--------------------------------A.H.-----------------------------------------------|
G(9)r7p5--/-12~--10h12p10p9-A.H.--9b(10)~--r9--7~------------------7--5h7p5-\4~-----|
D---------------------------10~--------------------7-\---/-7-9-10----------------7--|
A-----------------------------------------------------------------------------------|
E-----------------------------------------------------------------------------------|

E-----------------------------------------------------------------------------------|
B------------------------10-\-8~~---15b(17)-r15p13-------------------------15b(17)-r|
G--------------------7-9---------------------------14~---14~~--14--16--17~----------|
D-5-------7~--7-9-10----------------------------------------------------------------|
A----\-7----------------------------------------------------------------------------|
E-----------------------------------------------------------------------------------|

                               Bridge (2)
E--------------------/17~~------15b(17)-r15~~--12p8----10p7-------------------------|
B-15p13-15---15~~-13---------|----------------------10------8-------/-10---12b(13)r1|
G----------------------------|---------------------------------9~~------------------|
D----------------------------|------------------------------------------------------|
A----------------------------|------------------------------------------------------|
E-----------------------------------------------------------------------------------|

E------------------------------------------------------------------15-17-19b(20)r19-|
B2---b(13)r12b(13)r12-----------------------------------------/-17------------------|
G-----------------------12-/-14-14~~---12p10p9--------------------------------------|
D----------------------------------------------9~--10h12p10~------------------------|
A-----------------------------------------------------------------------------------|
E-----------------------------------------------------------------------------------|

                                                            Chorus (2) (with an acou
E-15-----------------------------17--19--20--p19-17-19~~--19b(20)~~-----------------|
B----17~--18b(20)--r18p17h18~----------------------------|--------------------------|
G--------------------------------------------------------|-----5-----------7--------|
D--------------------------------------------------------|-----5-----5-----7-----7--|
A--------------------------------------------------------|-----3-----5-----5-----7--|
E--------------------------------------------------------------------3-----------5--|

 stic guitar that strums the chords)
E-----------------------------------------------------------------------------------|
B-----------------------------------------------------------------------------------|
G--5------------------/--2--/--4--/--5---------7-----------5------------------/--2--|
D--5----5----3--/--5--/--2--/--5--/--5----5----7-----7-----5----5----3--/--5--/--2--|
A--3----5----3--/--5--/--0--/--2--/--3----5----5-----7-----3----5----3--/--5--/--0--|
E-------3----1--/--3----------------------3----------5----------3----1--/--3--------|
                                                 _______________________ ___________
                                                |1.                     |2. Keyboard
E-----------------------------------------------|-----------------------|-----------|
B--------------|--------------------------------|-----------------------|----------1|
G-/--4--/--5\--|*---5---------7---------5-------|----------/--2--/--4--*|-------0---|
D-/--5--/--5\--|*---5----5----7----7----5----5--|-3--/--5--/--2--/--5--*|--/-3------|
A-/--2--/--3\--|----3----5----5----7----3----5--|-3--/--5--/--0--/--2---|-----------|
E------------------------3---------5---------3--|-1--/--3---------------|-----------|
 _______________________________
 arranged for guitar            |
E-------------------------------||
B---------3------------5~~------||
G------2------------4-----------|| end
D-/-5---------/--7--------------||
A-------------------------------||
E-------------------------------||

-----------------------------------------------------------------------------------------

=======================
=TABLATURE EXPLANATION=
=======================

A.H. = Artificial Harmonic

pm..| = Palm mute

h = hammer on

p = pull off

/ = slide up

\ = slide down

~ = Vibrato

b() = Bend

x\ = Pick Slide

--------
--------
---12--- = Tremolo pick
----/---
----/---
----/---

---.---
--12--- = Staccato
-------
-------
-------

|     |
|     |
|*   *| = repeat from * to *
|*   *| 
|     |

LYRICS:
***********************************************************************

Remember when we used to look how sun set far away?
And how you said: "this is never over"
I believed your every word and I quess you did too
But now you´re saying : "hey, let´s think this over" 

You take My hand and pull me next to you, so close to you
I have a feeling you don´t have the words
I found one for you, kiss your cheak, say bye, and walk away
Don´t look back cause I am crying 

I remember little things, you hardly ever do
Tell me why.
I don´t know why it´s over
I remember shooting stars, the walk we took that night
I hope your wish came true, mine betrayed me 

You let my hand go, and you fake a smile for me
I have a feeling you don´t know what to do
I look deep in your eyes, hesitate a while...
Why are you crying? 

Tallulah, It´s easier to live alone than fear the time it´s over
Tallulah, find the words and talk to me ,oh, Tallulah,
This could be... heaven 

I see you walking hand in hand with long-haired drummer of the band
In love with her or so it seems, he´s dancing with my beauty queen
Don´t even dare to say you hi, still swallowing the goodbye
But I know the feelings still alive, still alive 

I lost my patience once, so do you punish me now
I´ll always love you, no matter what you do
I´ll win you back for me if you give me a chance
But there is one thing you must understand 

Tallulah, It´s easier to live alone than fear the time it´s over
Tallulah, find the words and talk to me ,oh, Tallulah,
This could be... heaven 

Tallulah, It´s easier to live alone than fear the time it´s over
Tallulah, find the words and talk to me ,oh, Tallulah,
This could be... heaven 

***********************************************************************
Comments