Sonata Arctica - Replica Chords & Tabs

 

Replica Chords & Tabs

Sonata Arctica Chords & Tabs

Version: 2 Type: Tab 0 ratings
1 star 2 stars 3 stars 4 stars 5 stars
comments

Replica Tab

   
********************************************************
* SONATA ARCTICA - REPLICA (From the album: ECLIPTICA) *
********************************************************
 Music and Words By: Sonata Arctica

Transcribed By: Niclas Buss
Days tabbed: 16-18.2.2000
email: nbuss@ironmaiden.com

Please mail me if you can find mistakes!

-----------------------------------------

 Tune down 1/2 step!

  Clean sound (with Chorus effect)
E---------1--------------1----------------0---------------1-----------------1------|
B-----3-----3---1----1-----1----------1-----1----------------1----------3-----3---1|
G-------2-----2--------2-----2----------0-----0---------3------3----------2-----2--|
D--0--------------/3-----------3-\0-------------2-----3----------3---0-------------|
A-----------------------------------3-------------0h1------------------------------|
E----------------------------------------------------------------------------------|

						    Verse 1
E--------1----------------0-----------------1~~-------------1--------------1-------|
B----1-----1-----------------1----------1---------|-----3-----3---1----1-----1-----|
G------2-----2----------0------0----------3-------|-------2-----2--------2-----2---|
D--3-----------3-\0---2----------2----------------|--0---------------3-----------3-|
A-------------------3---------------0h1-----------|--------------------------------|
E----------------------------------------------------------------------------------|

E---------0---------------1-----------------1--------------1----------------0------|
B-----1-----1----------------1----------3-----3---1----1-----1-----------------1---|
G-------0-----0---------3------3----------2-----2--------2-----2----------0------0-|
D\0-------------2-----3----------3---0---------------3-----------3-\0---2----------|
A---3-------------0h1-------------------------------------------------3------------|
E----------------------------------------------------------------------------------|

E------------------------3---------------3---------------3-------------------------|
B--------------------3-----3---------3-----3---------3-----3-----------4~~-------3-|
G----------3~~---------3-----3---------3-----3---------3-----3-------3-------------|
D-2------3--------5------------5---3-----------3---2-----------2---1----------0----|
A----0h1---------------------------------------------------------------------------|
E----------------------------------------------------------------------------------|

							  Verse 2
E---1---------------1-------------1----------------0~~------------1--------------1-|
B-----3---1----1------1-------3-----3---1------1--------|-----3-----3---1----1-----|
G-2-----2--------2------2-------2-----2----------0------|-------2-----2--------2---|
D------------3-------------0----------------------------|--0---------------3-------|
A-------------------------------------------3-----------|--------------------------|
E----------------------------------------------------------------------------------|

E-----------------0----------------------------------1--------------1--------------|
B-1-----------1-----1------------1---/2----------3-----3---1----1-----1------------|
G---2-----------0-----0------------3----2----------2-----2--------2-----2----------|
D-----3-\0--------------2------3----------2---0---------------3-----------3-\0---2-|
A----------3---------------0h1-------------------------------------------------3---|
E----------------------------------------------------------------------------------|

E-----0---------------------------3---------3---------3-------------------------1--|
B---1---1---1----1--------2---------3---------3---------3----------4~-------3-----3|
G-0-------0--------3--------2---------3---------3---------3------3------------2----|
D--------------------3----------5---------3---------2-------\--1---------0---------|
A--------------1--------0----------------------------------------------------------|
E----------------------------------------------------------------------------------|

E------------1-----------3---------3---------3----------------------1--------------|
B---1----1-----1-----------3---------3---------3---------4~-----3-----3---1-----1--|
G-2--------2-----2-----------3---------3---------3-----3----------2-----2----------|
D------3-----------3--5----------3---------2-------\-1-------0--------------------0|
A----------------------------------------------------------------------------3-----|
E----------------------~~----------------------------------------------------------|

         Chorus (1)
E-0~~-----1----1-----1----1---1-1---------------------------------1----1--0----1---|
B------|--3----3-----1----1---1-1---6-\-5---5-5-------------------3----3--3----1---|
G------|--2----2-----2----2---2-2---5---5---5-5----3----3---3-3---2----2--2----2---|
D------|--0----0-----3----3---3-3---5---5---5-5----5----5---5-5---0----0--0----3---|
A------|----------------------------3---3---3-3----5----5---5-5--------------------|
E--------------------------------------------------3----5---3-3--------------------|

				    Guitar Solo 1 (with Dist.)
E-1--------------------------------------------------------------------------------|
B-1---6-\-5--5-5--------------3~--|------------------------------------------------|
G-2---5---5--5-5----3----3----3~--|---------------5h7~~---5----/9h10---------------|
D-3---5---5--5-5----5----5----3~--|--/5h7---5h7h8-----------7--------10-10~~--10-\-|
A-----3---3--3-3----5----5----1~--|-------5----------------------------------------|
E-------------------3----3---------------------------------------------------------|
					 pm		   pm        pm

E-----------------------------------------------A.H.............|------------13--10|
B----------------------------------/10--13b(15)--(15)-(15)-(15)--r13-10/13~--------|
G--------------/7b(9)-r7~----------------------------------------------------------|
D\7-10-10-10-7------------10-8--7--------------------------------------------------|
A----------------------------------------------------------------------------------|
E----------------------------------------------------------------------------------|

									      Verse
E----------------------------------------------------------------------------------|
B-13-10-----13--10----------10----------------------------------------------|------|
G-------12---------12-10--------12-10-----------------------9-/10~~---12~~--|----2-|
D------------------------12-----------12-10----------10h12------------------|--0---|
A-------------------------------------------12-10h12------------------------|------|
E----------------------------------------------------------------------------------|
 									      pm
 3 (with Dist.) 
E-----1-1----------------1-1-------------0-1-0----------1--1---------------1-1-----|
B-3-------1---------1--------1---1-----1-------1--------1--1--/2-------3-------1---|
G---2-------2-----2---2--------2-----------------0----3-------/2-----2---2-------2-|
D---------------3-------------------------------------3-------/2---0---------------|
A------------------------------------3--------------1------------------------------|
E----------------------------------------------------------------------------------|
  pm           pm    pm       pm    pm		   pm..|          pm    pm

						Two guitars
E--------1---------------0-1-0h1p0-------------------------------------------------|
B------1---1---1-------1-----------1--------------11-11-----10-11-----8-11----8-11-|
G----2-------2-------0---------------0---3---2---/12----12-\10----10-\9----9-\8----|
D--3-------------------------------------3---2-------------------------------------|
A------------------3---------------------1---0-------------------------------------|
E----------------------------------------------------------------------------------|
 pm.....|         pm..|

E-11~--------------------------------------------------11--------------------------|
B---------------------11-11-----10-11-----8-11----8-11-----\10--11--11b(13)~~----\-|
G------7~~--9-10~~----12----12-\10----10-\9----9-\8--------------------------------|
D----------------------------------------------------------------------------------|
A----------------------------------------------------------------------------------|
E----------------------------------------------------------------------------------|

  Chorus (2)
E----------------------------------------------------------------------------------|
B----------------------------------------------------------------------------------|
G----------------------------------------------------------------------------------|
D--7---7-------3---3-----5---5-----5----5-----7---7--------3---3-----5---5-----5---|
A--5---5---\2--3---3-----3---3-----5----5-----5---5----\2--3---3-----3---3-----5---|
E--5---5---\0--1---1-----3---3-----3----3-----5---5----\0--1---1-----3---3-----3---|

E----------------------------------------------------------------------------------|
B-----|----------------------------------------------------------------------------|
G-----|----------------------------------------------------------------------------|
D--5--|---3--------5------3---/7-7-------\5-\3--------5--------3-------3-------3---|
A--5--|---1----3---3------1---/5-5--5-5--\3-\1----3---3---\0-0-1---0-0-1---0-0-1--0|
E--3-----------1----------------------------------1--------------------------------|
				   pm..|		 pm...|   pm..|   pm..|  pm

E----------------------------------------------------------------------------------|
B--------|------6-----6-----5-----3~~-----6-6---6-6----5---\3---3~~-------6-----6--|
G--------|------7-----5-----5-----4~~-----7-7---5-5----5---\5---3~~-------7-----5--|
D---3-\--|--0-0---0-0---0-0---0-0-------0-----0------0---0----0-------0-0---0-0---0|
A-0-1-\--|-------------------------------------------------------------------------|
E----------------------------------------------------------------------------------|
 ..|       pm..| pm..| pm..| pm..|     pm    pm     pm  pm   pm      pm..| pm..| pm

					     Guitar Solo 2
E----------------------------------------------------------------------------------|
B---5-----3~~----6-6---6-6---5---\3---3~~--|---------------------------------------|
G---5-----4~~----7-7---5-5---5---\5---3~~--|------9-10-12-12b(14)--r12~~----------9|
D-0---0-0------0-----0-----0---0----0------|--/12-------------------------\12--12--|
A------------------------------------------|---------------------------------------|
E----------------------------------------------------------------------------------|
 ..| pm..|   pm     pm    pm  pm   pm
[ Tab from: http://www.guitartabs.cc/tabs/s/sonata_arctica/replica_tab_ver_2.html ]
E---------------------------------------------------------------------/17-13----13-|
B------------------------------------------------------------13--------------15----|
G-10-b(12)-r10-9-10p9h10p9h10p9-----------9-10-12-12b(14)--r----12~~---------------|
D---------------------------------\12--12------------------------------------------|
A----------------------------------------------------------------------------------|
E----------------------------------------------------------------------------------|

E----------------------------------------------------------------------------------|
B-15----15----------------------------------------------------------------10-11-13-|
G----14----14----14-----------------------------------------------9-10-12----------|
D-------------15----15-\12-15-12----12--------------------8-10-12------------------|
A--------------------------------13----13-\8-13-8--/10-12--------------------------|
E----------------------------------------------------------------------------------|

E-------------------------10~~----\------------------------------------------------|
B-11-10----------10-11-13-----------\---|-----------------|------------------------|
G-------12\10/12------------------------|--Keyboard-Solo--|------------------------|
D---------------------------------------|-----------------|--12--------------------|
A---------------------------------------|-----------------|--10-10-10-10-\8-8-8-8-\|
E----------------------------------------------------------------------------------|
							       pm..................

E----------------------------------------------------------------------------------|
B----------------------------------------------------------------------------------|
G----------------------------------------------------------------------------------|
D--------------------7----9--10---/12----------------------------------------------|
A-7-7-7-7-\6-6-6-6---5----7--8----/10-10-10-10-\8-8-8-8-\7-7-7-7-\6-6-6-6--6\------|
E----------------------------------------------------------------------------------|
 .................|			 pm..................................|

  Verse 4 (with clean sound)
E----------1---------------1---------------0---------------1----------------1------|
B-----3------3---1-----1-----1---------1-----1---------------1----------3-----3---1|
G-------2------2---------2-----2---------0-----0---------3-----3----------2-----2--|
D--0----------------3------------3---------------2-----3---------3---0-------------|
A-----------------------------------\3--------------\1-----------------------------|
E----------------------------------------------------------------------------------|

		 Dist.		 Chorus (3)
E--------1-------------------------------------------------------------------------|
B----1-----1-------------------|---------------------------------------------------|
G------2-----2-----------------|---------------------------------------------------|
D--3-----------3---5~----------|---7---7--------------5---5--------------7---7-----|
A------------------3~----5~----|---5---5----\3---3----3---3----5---5-----5---5--\2-|
E------------------------3~--------5---5----\1---1----3---3----3---3-----5---5--\0-|

E----------------------------------------------------------------------------------|
B----------------------------------------------------------------------------------|
G----------------------------------------------------------------------------------|
D----------5---5--------------7---7---/9--10--10----\5---5--------------7---7------|
A-3---3----3---3----5---5-----5---5---/7--8---8-----\3---3----5---5-----5---5---\2-|
E-1---1----3---3----3---3-----5---5---/7--8---8-----\3---3----3---3-----5---5---\0-|

			      w/Lead  Fill 1
E----------------------------------------------------------------------------------|
B---------------------------|------------------------------------------------------|
G---------------------------|------------------------------------------------------|
D----------5---5------------|--7---7---------------5---5--------------7---7--------|
A-3---3----3---3----5---5---|--5---5---\2-3---3----3---3----5---5-----5---5---\2-3-|
E-1---1----3---3----3---3------5---5---\0-1---1----3---3----3---3-----5---5---\0-1-|

E----------------------------------------------------------------------------------|
B----------------------------------------------------------------------------------|
G----------------------------------------------------------------------------------|
D-------5---5--------------7---7---------------5---5--------------7---7------------|
A--3----3---3----5---5-----5---5---\2-3---3----3---3----5---5-----5---5---\2-3---3-|
E--1----3---3----3---3-----5---5---\0-1---1----3---3----3---3-----5---5---\0-1---1-|

			      Clean Sound (with Chorus effect)
E-------------------------------------1---------------1---------------0------------|
B---------------------------|-----3-----3---1-----1-----1---------1-----1----------|
G---------------------------|-------2-----2---------2-----2---------0-----0--------|
D---5-----5-----------------|--0---------------3------------3---------------2----3-|
A---3-----3--------5~~------|----------------------------------\3-------------\1---|
E---3-----3--------3~~-------------------------------------------------------------|

E---1----------------1---------------1--------------0------------------1-----------|
B-----1----------3-----3---1-----1-----1---------------1-------------1---1---------|
G-------3----------2-----2---------2-----2---------------0---------3-------3-------|
D-3-------3---0---------------3------------3------2--------2-----3-----------3----/|
A---------------------------------------------\3--------------\1---------------1---|
E----------------------------------------------------------------------------------|

E-------3---------------3------------------3--------------------------------||
B---3-----3---------3-----3----------3--------3------------------4~~--------||
G-----3-----3---------3-----3-----------3--------3-----------3~-------------|| end
D-5-----------5--\3-----------3--\2-----------------2---\1~-----------------||
A---------------------------------------------------------------------------||
E---------------------------------------------------------------------------||

--------------------------------------------------------------------------------------

  Rhythm Guitar during Guitar Solo 1
E---------1---------------1---------------0--------------------------------1-------|
B----3------3---1-----1-----1--------1------1----------1---/2----------3-----3---1-|
G------2------2---------3-----2---------0-----0----------3----2----------2-----2---|
D--0---------------3------------3---------------2----3----------2----0-------------|
A----------------------------------\3-------------\1-------------------------------|
E----------------------------------------------------------------------------------|

E--------1----------------0----------------------------------||
B----1-----1------------1---1---1-------1----/2--------------||
G------2-----2--------0-------0-----------3-----2-------\3---|| end
D--3-----------3----2-----------------3-----------2-----\5---||
A----------------\3----------------\1-------------------\5---||
E-------------------------------------------------------\3---||

    Rhythm Guitar during Guitar Solo 2
E----------------------------------------------------------------------------------|
B----------------------------------------------------------------------------------|
G----------------------------------------------------------------------------------|
D---3~~--------5----3----/7--7--------\5--\3----------5----------------------------|
A---1~~---3----3----1----/5--5--5-5---\3--\1-----3----3-----1-1-1-1-1-1-1-1-\0-0-0-|
E---------1--------------------------------------1---------------------------------|
			       pm..|			  pm.......................

E----------------||
B----------------||
G----------------|| end
D----------------||
A-0-0-0-0-0-0-/--||
E----------------||
 ............|


    Rhythm Guitar during Keyboard Solo
E----------------------------------------------------------------------------------|
B----------------------------------------------------------------------------------|
G----------------------------------------------------------------------------------|
D----------------------------------------------------------------------------------|
A--5-5-5-5-5-5-5-5-/-8-8-8-8-8-8-8-8------------------------------------/5-5-5-5-5-|
E------------------------------------\8-8-8-8-8-8-8-8-\6-6-6-6-6-6-6-6-------------|
  pm...............................................................................

E--------------------------------------------------------------------||
B--------------------------------------------------------------------||
G--------------------------------------------------------------------|| end
D--------------------------------------------------------------------||
A-5-5-5-5-/-8-8-8-8-8-8-8-8------------------------------------------||
E---------------------------\8-8-8-8-8-8-8-8-\6-6-6-6-6-6-6-6-6-6----||
 ................................................................|

  Lead Fill 1
E----------------------------------------------------------------------------------|
B----------------------------------------------------------------------------------|
G------------------------------------------------------------------------------10~~|
D--/12~~---10-----------------------------------------------10-12-10----10-12------|
A-------------12---10~~---8-10----\8------------7-8---10-12----------12------------|
E-------------------------------------10----10-------------------------------------|

E-------10h12h13~~-----------10-------------13\-------------------------------||
B--------------------13b(15)-----r-13b(15)--------------------------/13-------||
G-----------------------------------------------12~~---10--12-10--9-----12~~--|| end
D-\12~------------------------------------------------------------------------||
A-----------------------------------------------------------------------------||
E-----------------------------------------------------------------------------||

--------------------------------------------------------------------------------------

=======================
=TABLATURE EXPLANATION=
=======================

A.H. = Artificial Harmonic

pm..| = Palm mute

h = hammer on

p = pull off

/ = slide up

\ = slide down

~ = Vibrato

b() = Bend

x\ = Pick Slide

--------
--------
---12--- = Tremolo pick
----/---
----/---
----/---

---.---
--12--- = Staccato
-------
-------
-------

|     |
|     |
|*   *| = repeat from * to *
|*   *| 
|     |
Comments