Sonata Arctica - Rebontulet Chords & Tabs

 

Rebontulet Chords & Tabs

Sonata Arctica Chords & Tabs

Version: 1 Type: Tab 0 ratings
1 star 2 stars 3 stars 4 stars 5 stars
comments

Rebontulet Tab

   
 SONATA ARCTICA - REVONTULET 

Transcribed By: Juan Pablo Orphanopoulos from Chile


Please mail me if you can find mistakes!
mllon@hotmail.com
 
Tune down 1/2 step!

  Riff 1
E--20p19p17-----------------------------------------------------------------19~-----|
B-----------17----------------------------------------------------18h20h22~------17-|
G*-------------17p16p14----------------------------------------17-------------------|
D*----------------------14----------------------------15h17h19----------------------|
A--------------------------15p14p12----------------15-------------------------------|
E-----------------------------------12--/-13h15h17----------------------------------|

                                                                                 x4
E-17h19h20-----------------------------------------------------/-20-----------19~---|
B-------------------------------------------------------------------22p20p18~-------|
G-------------14h16h17----------------------------/-17-----------------------------*|
D----------14------------------------------------------19p17p15--------------------*|
A-------------------------12h14h15--/-15--------------------------------------------|
E----------------------12----------------17p15p13-----------------------------------|

  Riff 2
E--------------------------/-20p19p17-----------------------------------------------|
B-------------------------------------17--------------------------------------------|
G*---------------------------------------17p16p14-----------------10-/-12-----------|
D*------------------------------------------------14--------------10-/-12--12-12----|
A-----15-14-12----12-14-15---------------------------15p14p12------8-/-10--12-12--11|
E--12----------12---------------------------------------------12-----------10-10----|
  pm......................|

E--------------Two-Gtrs---------------------------/-20p19p17------------------------|
B------------------------------------------------------------17---------------------|
G---------------------------------------------------------------17p16p14------------|
D-------10h12h14-12--9---------------------------------------------------14---------|
Ah12h14----------14~-11~-----15-14-12----12-14-15---------------------------15p14p12|
E-------------------------12----------12--------------------------------------------|
                         pm.......................|
[ Tab from: http://www.guitartabs.cc/tabs/s/sonata_arctica/rebontulet_tab.html ]
                                            x2
E---------------------------------------Two-----------------------------------------|
B---------------------------------------Gtrs---|------------------------------------|
G-----10-/-12---------------------------------*|------------------------------------|
D-----10-/-12--12-12------------10h12h14--9---*|---7\-5\-3\-5\-2\---7\-5\-3\-5\-2\--|
A------8-/-10--12-12---11h12h14----------11~---|---7\-5\-3\-5\-2\---7\-5\-3\-5\-2\--|
E-12-----------10-10-------------------------------5\-3\-1\-3\-0\---5\-3\-1\-3\-0\--|

E-----------------------------------------------------------------------------------|
B-----------------------------------|-----------------------------------------------|
G-----------------------------------|*--10p7---\9p5---\7p3---/9p5---5p3-----3h5p3--/|
D--7\-5\-3\-5\-2\---7--5--3--5--2~--|*-------7------5------3------5-----5p3---------|
A--7\-5\-3\-5\-2\---7--5--3--5--2~--|-----------------------------------------------|
E--5\-3\-1\-3\-0\---5--3--1--3--0~--------------------------------------------------|

                                                         x2
E-----------------------------------------------------------------------------------|
B-----------------------------------------------------------|----------|------------|
G-10p7---\9p5---\7p3---/9p5---/10p7---\9p5---\7p3-------3--*|--Riff-2--|------------|
D------7------5------3------5-------7------5------3---3----*|----------|-----------/|
A---------------------------------------------------5-------|----------|--11h12h14--|
E-----------------------------------------------------------------------------------|

                                                   Two Guitars:
E--------Two------------------------------------------------------------------------|
B--------Gtrs------------------------|-----------|-----------------------------17-18|
G------------------------------------|--Riff-1---|--------------------16-17-19-17-19|
D10h12h14--9~-----------10h12h14~~---|---(x2)----|-----------15-17-19-17-19-21------|
A---------11~--11h12h14--------------|-----------|--15-17-19-17-19-20---------------|
E---------------------------------------------------17-19-20------------------------|

E----17-19/20-22-20\19-17-----------------17----------------------------------------|
B-20-18-21/22-24-22\21-18-20-18-17--------18--20-18-17------------------------------|
G-21----------------------21-19-17-19-17------21-19-17-19-17-16---------------------|
D----------------------------------21-19---------------21-19-17-19-17-15------------|
A---------------------------------------------------------------20-19-17-19-17-15\14|
E------------------------------------------------------------------------20-19-17\16|

E-----------||
B-----------||
G-----------|| end
D-----------||
A/15~---\---||
E/17~---\---||

-----------------------------------------------------------------------------------------

=======================
=TABLATURE EXPLANATION=
=======================

A.H. = Artificial Harmonic

pm..| = Palm mute

h = hammer on

p = pull off

/ = slide up

\ = slide down

~ = Vibrato

b() = Bend

x\ = Pick Slide

--------
--------
---12--- = Tremolo pick
----/---
----/---
----/---

---.---
--12--- = Staccato
-------
-------
-------

|     |
|     |
|*   *| = repeat from * to *
|*   *| 
|     |

Comments