Sonata Arctica - My Land Chords & Tabs

 

My Land Chords & Tabs

Sonata Arctica Chords & Tabs

Version: 3 Type: Tab 0 ratings
1 star 2 stars 3 stars 4 stars 5 stars
comments

My Land Tab

Artist: Sonata Arctica
Title: My Land (Intro)
Album: Ecliptica
Transcribed by: Ville Kaaronen
Email: villekaaronen86@hotmail.com

One of the best songs on Ecliptica, very powerful Power Metal song! Here?s just the Intro,
because Sonata Arctica is quite difficult to tab and i?m just average guitar player...
But the Intro sounds damn good!
[ Tab from: http://www.guitartabs.cc/tabs/s/sonata_arctica/my_land_tab_ver_3.html ]
E-14-13----------11-9-------------9------------11---------------------|
B-------14----11------------------------------------------------------|
G---------------------11----10-11-----11-10-11------------------------|
D---------------------------------------------------------------------|
A---------------------------------------------------------------------|
E---------------------------------------------------------------------|

E-14-13----14-13-----11-9-------14-13----14-13----11-9-18-------------|
B-------14-------14-------------------14-------14---------------------|
G-------------------------11------------------------------------------|
D---------------------------------------------------------------------|
A---------------------------------------------------------------------|
E---------------------------------------------------------------------|

Very easy, which isn?t a common thing for regular Sonata Arctica song! =)
Comments