Sonata Arctica - Land Of The Free Chords & Tabs

 

Land Of The Free Chords & Tabs

Sonata Arctica Chords & Tabs

Version: 2 Type: Tab 0 ratings
1 star 2 stars 3 stars 4 stars 5 stars
comments

Land Of The Free Tab

   
***************************************************************
* SONATA ARCTICA - LAND OF THE FREE (From the ALBUM: SILENCE) *
***************************************************************
 Music and Words By: Sonata Arctica/T.Kakko

Transcribed By: Niclas Buss
Day tabbed: 20.10.2001
Homepage: http://www.metalprovider.com/thedarktower/enter.htm
email: thetabber@yahoo.se


Please mail me if you can find mistakes!

-------------------------------------------

 Tune down 1/2 step!

                     Verse 1
E-----------------------------------------------------------------------------------|
B------------------|----------------------------------------------------------------|
G--Keyboard-Intro--|----------------------------------------------------------------|
D-----(31-sec)-----|----------------------------------------------------------------|
A------------------|----------------------------------------------------------------|
E---------------------0-0-0-0-0-0-0-0-0-0-0-0-0-0-0-0-0-0-0-0-0-0-0-0-0-0-0-0-0-0-0-|
                     pm.............................................................

E-----------------------------------------------------------------------------------|
B-----------------------------------------------------------------------------------|
G--------------------------------7\--7\-/--9\--9-\----------------------------------|
D----5--4~-\-2-------------------7\--7\-/--9\--9-\-\--------------------------------|
A----5--5~-\-2-------------------5\--5\-/--7\--7-\-\--------------------------------|
E-0--3--2~-\-0--0-0-0-0-0-0-0-0--------------------\--0-0-0-0-0-0-0-0-0-0-0-0-0-0-0-|
 ..|           pm..............|                     pm.............................

                               Chorus (1)
E-----------------------------------------------------------------------------------|
B----------------------------|------------------------------------------------------|
G----------------------------|--2------------------------------7--------------------|
D---------------------5--4~--|--2------------------------------7-----------------7-3|
A---------------------5--5~--|--0-0-0-0-0-0-0-0-7-3-7---7-3-7--5-5-5-5-5-5-5-5-7----|
E-0-0-0-0-0-0-0-0-0---3--2~---------------------------5-----------------------------|
 ..................|             pm..........................|  pm..................

E-----------------------------------------------------------------------------------|
B-----------------------------------------------------------------------------------|
G------------------------------------------------/-5------------------------------\-|
D-7---7-3-7--\-5---------------------------------/-5---------------5-2-5---5-2-5--\-|
A---5--------\-5---------------5-2-5---5-2-5-----/-3-3-3-3-3-3-3-3-------3--------\-|
E------------\-3-3-3-3-3-3-3-3-------3-------3p2------------------------------------|
 ..........|    pm..............................|   pm...........................|

E-----------------------------------------------------------------------------------|
B-----------------------------------------------------------------------------------|
G-2-------------------------------7-------------------------------------------------|
D-2-------------------------------7---------------7-3-7---7-3-7--\-5---------5~-----|
A-0-0-0-0-0-0-0-0-7-3-7---7-3-7-\-5-5-5-5-5-5-5-5-------5--------\-5---------5~-----|
E-----------------------5----------------------------------------\-3-3-3-3-3-3~---3-|
   pm..........................|   pm..........................|    pm......|    pm.

                                     Verse 2
E-----------------------------------------------------------------------------------|
B----------------------------------|------------------------------------------------|
G----------------------------------|------------------------------------------------|
D-------4-5h7p5-4------------------|--2---------------------------------------------|
A-----5-----------5-3-2------------|--2---------------------------------------------|
E-/-7-------------------5-3-2-0-2-----0-0-0-0-0-0-0-0-0-0-0-0-0-0-0-0-0-0-0-0-0-0-0-|
 ........|      pm...............|     pm...........................................

E-----------------------------------------------------------------------------------|
B-----------------------------------------------------------------------------------|
G--------------------------------------------------------7\--7\--/--9\--9\----------|
D--------------------------5--4~---\-2-------------------7\--7\--/--9\--9\-\--------|
A--------------------------5--5~---\-2-------------------5\--5\--/--7\--7\-\--------|
E-0-0-0-0-0-0-0-0-0-0-0-0--3--2~---\-0--0-0-0-0-0-0-0-0--------------------\--0-0-0-|
 ........................|             pm..............|                     pm.....

                                                      Chorus (2)
E-----------------------------------------------------------------------------------|
B---------------------------------------------------|-------------------------------|
G---------------------------------------------------|--2----------------------------|
D--------------------------------------------5--4~--|--2----------------------------|
A--------------------------------------------5--5~--|--0-0-0-0-0-0-0-0-7-3-7---7-3-7|
E-0-0-0-0-0-0-0-0-0-0-0-0-0-0-0-0-0-0-0-0-0--3--2~---------------------------5------|
 ..........................................|            pm..........................|

E-----------------------------------------------------------------------------------|
B-----------------------------------------------------------------------------------|
G--7--------------------------------------------------------------------/-5---------|
D--7---------------7-3-7---7-3-7--\--5----------------------------------/-5---------|
A--5-5-5-5-5-5-5-5-------5--------\--5---------------5-2-5---5-2-5------/-3-3-3-3-3-|
E---------------------------------\--3-3-3-3-3-3-3-3-------3-------3p2--------------|
    pm..........................|     pm..............................|    pm.......

E-----------------------------------------------------------------------------------|
B-----------------------------------------------------------------------------------|
G----------------------\-2------------------------------7---------------------------|
D-------5-2-5---5-2-5--\-2------------------------------7---------------7-3-7---7-3-|
A-3-3-3-------3--------\-0-0-0-0-0-0-0-0-7-3-7---7-3-7--5-5-5-5-5-5-5-5-------5-----|
E----------------------------------------------5------------------------------------|
 ....................|    pm..........................|  pm.........................

                      Interlude
E-----------------------------------------------------------------------------------|
B-------------------|---------------------------------------------------------------|
G-------------------|--7------------------------------------------------------------|
D-7---5---------5~--|--7------------------------------------------------------------|
A-----5---------5~--|--5-5-5-5-5-5-5-5-5-5-5-5-5-5-5-5-5-/-6-6-6-6-6-6-6-6-6-6-6-6-6|
E-----3-3-3-3-3-3~------------------------------------------------------------------|
 ..|   pm......|        pm..........................................................

E-----------------------------------------------------------------------------------|
B-----------------------------------------------------------------------------------|
G--------------------------------------7---------7----------------------------------|
D--------------------------------------7---------7----------\-8---------8-----------|
A-6------------------------------------5-5-5-5-5-5--5-5-5-5-\-8---------8-----------|
E----\6-6-6-6-6-6-\-5-5-5-5-\-3-3-3-3-----------------------\-6-6-6-6-6-6--6-6-6-6--|
 ....................................|  pm......|  pm......|   pm......|  pm......|

E-----------------------------------------------------------------------------------|
B-----------------------------------------------------------------------------------|
G----------------------------5-----5-------------------------------5-/-6------------|
D-8--------8------------3----5-----5-------------------------------5-/-7------------|
A-8--------8------------3----3-----3-3-3-3-3-3-3-3-3-3-3-3-3-3-3-3-3-/-4-4-4-4-4-4-4|
E-6---6-6--6--6-6-6-6---1-----------------------------------------------------------|
     pm..|   pm......|              pm............................|     pm..........

                                                                      Guitar Solo 1
E-----------------------------------------------------------------------------------|
B-----------------------------------------------|-------------------|---------------|
G-------------------6-/-7---5---3----3-----2----|--Keyboard-Solo-1--|---------------|
D-------------------7-/-7---5---3----3-----2----|-------------------|------------10-|
A-4-4-4-4-4-4-4-4-4-4-/-5---3---1----1-----0----|-------------------|-/-10-12-14----|
E-----------------------------------------------------------------------------------|
 ..................|

E-------------------------------------------12-13-15-/-17h18-17-17-15h17p15p13-15-15|
B----------------------------------12-13-15-----------------------------------------|
G-------10-12-14----------10-12-14--------------------------------------------------|
D-12-14----------10-12-14-----------------------------------------------------------|
A-----------------------------------------------------------------------------------|
E-----------------------------------------------------------------------------------|

E-13h15p13p12-/13p12----------------------------------13-/17-15-13------------------|
B--------------------13----------------------13----15--------------15----15~--15-14-|
G-----------------------12-13-14----------14----14--------------------14------------|
D--------------------------------15h16-12-------------------------------------------|
A-----------------------------------------------------------------------------------|
E-----------------------------------------------------------------------------------|
[ Tab from: http://www.guitartabs.cc/tabs/s/sonata_arctica/land_of_the_free_tab_ver_2.html ]
E-------------------------------------------------------12-13-15----------13-15-17b(|
B-13----------------12-13-15-13----------------11-13-15----------13-15-17-----------|
G----14-13-12-13-14-------------14-12p10h12-14--------------------------------------|
D-----------------------------------------------------------------------------------|
A-----------------------------------------------------------------------------------|
E-----------------------------------------------------------------------------------|

                               Guitar Solo 2                          Two Guitars...
E18)~~--------------------------------------15-----------------------/-15-1515-13p12|
B--------|-------------------|--------------------------17-----------/-17-1717-15p13|
G--------|--Keyboard-Solo-2--|--------14-16----14-16-17----17-16-14~----------------|
D--------|-------------------|-----14-----------------------------------------------|
A--------|-------------------|--12--------------------------------------------------|
E-----------------------------------------------------------------------------------|

 .........................|
Eh13~---13-1313-12p10--------------------------17-15-13----------15-13-12-----------|
Bh15~---15-1515-13p12-12~----17-15-13-------------------17-15-13----------15-13-12-/|
G---------------------12~-------------16-14-12--------------------------------------|
D-----------------------------------------------------------------------------------|
A-----------------------------------------------------------------------------------|
E-----------------------------------------------------------------------------------|

E-----------------------------------------------------------------------------------|
B-17-15-13-----------------------------17-15-13----------15-13-12----------13-12----|
G----------16-14-12-----------------------------16-14-12----------14-12-10-------14-|
D-------------------15-14-12--------------------------------------------------------|
A----------------------------15-14-12-----------------------------------------------|
E-----------------------------------------------------------------------------------|

E-----------------------------------------------------------------------------------|
B-----------------|--Gtr.2----------------------------------------------------------|
G-12-10-----------|-(/-7b(9)~~--)---------------------------------------------------|
D-------14-12-10--|----------------------------------------5--4~--------------------|
A-----------------|--2-2-2-2-2-2--2-2\---2-2-2-2--2-2--2---5--5~---2-2-2-2-2-2--2-2\|
E--------------------0-0-0-0-0-0--0-0\---0-0-0-0--0-0--0---3--2~---0-0-0-0-0-0--0-0\|
                    pm...................................|        pm................

E-----------------------------------------------------------------------------------|
B-----------------------------------------------------------------------------------|
G--------------------5--4~-----------------------------------------5--4~------------|
D--------------------5--5~-----------------------------------------5--5~------------|
A--2-2-2-2--2-2--2---3--2~---0-0-0-0-0-0--0-0\---0-0-0-0--0-0--0---3--2~--0-0-0-0-0-|
E--0-0-0-0--0-0--0------------------------------------------------------------------|
 .................|         pm...................................|       pm.........

         Two Guitars.........................|
E-----------------------------------------------------------------------------------|
B-----------------------------------------------------------------------------------|
G----------8h9h11p9p8---------------------------------------------------------------|
D----------1h2h-4p2p1-10p9p7---------1--1--1~---------------------------------------|
A-0--0-0\--------------3p2p0-10p9p7-\6--6--6~----2-2-2-2-2-2--2-2\---2-2-2-2--2-2--2|
E-----------------------------3p2p0--------------0-0-0-0-0-0--0-0\---0-0-0-0--0-0--0|
 ........|                                      pm..................................|
 
E-----------------------------------------------------------------------------------|
B-----------------------------------------------------------------------------------|
G-------------------------------------------------5--4~-----------------------------|
D---5--4~-----------------------------------------5--5~-----------------------------|
A---5--5~---2-2-2-2-2-2--2-2\---2-2-2-2--2-2--2---3--2~--0-0-0-0-0-0--0-0\---0-0-0-0|
E---3--2~---0-0-0-0-0-0--0-0\---0-0-0-0--0-0--0-------------------------------------|
           pm..................................|        pm..........................

                                    Two Guitars.....................................
E------------------------------------/11-12-14-12-11--------------------------------|
B--------------------------------------4--5--7--5--4-13-12-10----10-12-10-----------|
G----------5--4~--------------------------------------5--4--2-12--2--4--2-12-11-9\8-|
D----------5--5~-----------------------------------------------5-----------5--4-2\1-|
A-0-0--0---3--2~--0-0-0-0-0-0--0-0\-------------------------------------------------|
E-----------------------------------------------------------------------------------|
 .......|        pm................|

 ...................|  Verse 3
E-----------------------------------------------------------------------------------|
B------------A.H.----|--------------------------------------------------------------|
G-------------9~--\--|--------------------------------------------------------------|
D-10-9-7------2~--\--|--2--------------------------------------------------------5--|
A--3-2-0-10-9--------|--2--------------------------------------------------------5--|
E---------3-2-----------0-0-0-0-0-0-0-0-0-0-0-0-0-0-0-0-0-0-0-0-0-0-0-0-0-0-0-0--3--|
                         pm....................................................|

E-----------------------------------------------------------------------------------|
B-----------------------------------------------------------------------------------|
G-----/--2--------------------------------------------------------------------------|
D-4~--/--2---5---4------------------------------------------------------------------|
A-5~--/--0---5---5------------------------------------------------------------------|
E-2~---------3---2---2-\-0-0-0-0-0-0-0-0-0-0-0-0-0-0-0-0-0-0-0-0-0-0-0-0-0-0-0-0-0-0|
                        pm..........................................................

E-----------------------------------------------------------------------------------|
B----------------|--------------|--------------------12h15p12h15p12-------------|---|
G----------------|--Chorus-(2)--|--------------12h14----------------14p12-------|--C|
D----5--4~--\----|--------------|-----------12----------------------------12-\--|---|
A----5--5~--\----|--------------|--10h12h14-------------------------------------|---|
E-0--3--2~--\-----------------------------------------------------------------------|
 ..|

              Outro
E-----------------------------------------------------------------------------------|
B-----------|----------------------------------------6----5~------------------------|
Ghorus-(2)--|---7-----------5------------7-----------5-----------7-----------5------|
D-----------|---7-----5-----5-----3------7-----5-----5-----------7-----5-----5-----3|
A-----------|---5-----5-----3-----3------5-----5-----3-----------5-----5-----3-----3|
E---------------5-----3-----------1------5-----3-----------------5-----3-----------1|

E---------------------------------------||
B---------------6----5~-----------------||
G---7-----------5-----------7~~---\-----|| end
D---7-----5-----5-----------7~~---\-----||
A---5-----5-----3-----------5~~---\-----||
E---5-----3-----------------5~~---\-----||


-----------------------------------------------------------------------------------------

  Rhythm Guitar during Keyboard Solo 1             x2
E-----------------------------------------------------||
B-----------------------------------------------------||
G*--2------------7-7----7----5------------4-4----4---*|| end
D*--2------------7-7----7----5------------5-5----5---*||
A---0-0-0-0-0-0--5-5--5-5----3-3-3-3-3-3--2-2--2-2----||
E-----------------------------------------------------||
     pm........|     pm       pm........|     pm

  Rhythm Guitar during Guitar Solo 1                  x2
E---------------------------------------------------------||
B---------------------------------------------------------||
G*--7------------7-7----7----10------------9--9-----9----*|| end
D*--7------------5-5--5-5----10------------10-10----10---*||
A---5-5-5-5-5-5---------------8-8-8-8-8-8--7--7---7-7-----||
E---------------------------------------------------------||
     pm........|     pm        pm........|       pm

  Rhythm Guitar during Keyboard Solo 2            x2
E----------------------------------------------------||
B----------------------------------------------------||
G*---------------5-5----5---------------------------*|| end
D*--5------------5-5----5---8------------7-7----7---*|| 
A---5------------3-3--3-3---8------------8-8----8----||
E---3-3-3-3-3-3-------------6-6-6-6-6-6--5-5--5-5----||
     pm........|     pm      pm........|     pm

  Rhythm Guitar during Guitar Solo 2               x2
E-----------------------------------------------------||
B-----------------------------------------------------||
G*--2------------7-7----7----5------------4-4----4---*|| end
D*--2------------7-7----7----5------------5-5----5---*||
A---0-0-0-0-0-0--5-5--5-5----3-3-3-3-3-3--2-2--2-2----||
E-----------------------------------------------------||
     pm........|     pm       pm........|     pm

-----------------------------------------------------------------------------------------

=======================
=TABLATURE EXPLANATION=
=======================

A.H. = Artificial Harmonic

pm..| = Palm mute

h = hammer on

p = pull off

/ = slide up

\ = slide down

~ = Vibrato

b() = Bend

x\ = Pick Slide

--------
--------
---12--- = Tremolo pick
----/---
----/---
----/---

---.---
--12--- = Staccato
-------
-------
-------

|     |
|     |
|*   *| = repeat from * to *
|*   *| 
|     |
Comments