Sonata Arctica - Draw Me Chords & Tabs

 

Draw Me Chords & Tabs

Sonata Arctica Chords & Tabs

Version: 1 Type: Tab 0 ratings
1 star 2 stars 3 stars 4 stars 5 stars
comments

Draw Me Tab

   
Artist    :  SONATA ARCTICA
Song      :  DRAW ME
Album     :  Winterheart's Guild

Tabbed by :  Torgeir Tjong ( ttwice83@hotmail.com )
Day Tabbed:  25.01.2004

--------------------------------------------------------------------

  Tune down a whole step! (D G C F a D)

    Intro
e:--0-----------------------------------0--------------------------2-------|
B:------4-------------2---------------------4---------------2-4-5------5---|
G:--------6--4---2--------4----2---1----------6--4---2----4----------4---4-|
D:----6-----------------4---4--------2----6------------------------2-------|
A:--4--------0-0---0--2-----------------4--------0-0---0--2----------------|
E:-----------------------------0-0-----------------------------------------|




                                                                          V
e:-0-----------------------------------0-------------------------------|---|
B:-----4-------------2---------------------4-------------------2-------|---|
G:-------6--4---2--------4----2---1----------6--4---2----4---4---4-----|---|
D:---6-----------------4---4--------2----6-----------------------------|---|
A:-4--------0-0---0--2-----------------4--------0-0---0--2-2-----------|---|
E:----------------------------0-0--------------------------------------|--4|




  erse
e:-----0------------0-----------0-----------0------------0-----------0-----|
B:-------------------------------------------------------------------------|
G:-------------------------------------------------------------------------|
D:---1-2----------1-2---------1-2---------1-2----------1-2---------1-2-----|
A:-4------------4-----------2-----------2------------4-----------2---------|
E:------------4-----------0-----------0------------4-----------0-----------|



[ Tab from: http://www.guitartabs.cc/tabs/s/sonata_arctica/draw_me_tab.html ]
                                        (1:14)        Pre-chorus
e:----2-5---------2-4-----|------------|-----------|-----------------------|
B:------------------------|------------|-----------|--0-----0--------------|
G:------------------------|--keyboard--|---Verse---|------2----2-----2--1--|
D:----4-----------4-------|------------|-----------|---------------2-------|
A:--4-----------4---------|------------|-----------|--2-2------0-0--------4|
E:2-----------2-----------|------------|-----------|--------------------2--|




                                                                 Chorus (3:
e:---------------|-----------|-----------|----------------|---|------------|
B:---------------|-----------|-----------|----------------|---|------------|
G:---1--2-----2--|---Intro---|---Verse---|---Pre-chorus---|---|--6--------2|
D:-2----4---4----|-----------|-----------|----------------|---|--6--------2|
A:------0-0------|-----------|-----------|----------------|---|--4--------0|
E:---------------|-----------|-----------|----------------|---|------------|




  01) (2.guitar plays intro)
e:-------------------------------------------------------------------------|
B:-------------------------------------------------------------------------|
G:--------4--------9----8----6--------2--------4-----------------6--------2|
D:--------4--------9----8----6--------2--------4--------2--------6--------2|
A:--------2--------7----6----4--------0--------2--------2--------4--------0|
E:------------------------------------------------------0------------------|




                                                              *2    ending
e:---------------------------------------------------------------|---------|
B:---------------------------------------------------------------|-------2-|
G:--------4--------9----8----6--------2--------4--------4--------|--4--4---|
D:--------4--------9----9----6--------2--------4--------4--------|--4------|
A:--------2--------7----6----4--------0--------2--------2--------|--2------|
E:---------------------------------------------------------------|---------|


                 
                 
                 
e:---------|-----|
B:--2-4-5--|-----|
G:4--------|--End|
D:---------|-----|
A:---------|-----|
E:---------|-----|


Comments