Sonata Arctica - Blank File Chords & Tabs

 

Blank File Chords & Tabs

Sonata Arctica Chords & Tabs

Version: 1 Type: Bass Tab 0 ratings
1 star 2 stars 3 stars 4 stars 5 stars
comments

Blank File Bass Tab

* SONATA ARCTICA - BLANK FILE (BASS TAB)                             *

Transcribe by: Juan Pablo Orphanopoulos from Chile




(* = Many Times)
(Drums)                              
Intro 
|---|
|-5-|
|---|
|---|

Verse:
It is your new best friend..
|-----------------------------------------------------------------------------------------------------|
|-4-4-4-4-4-4--4-4-4-4-4-4-4-4-4-4-4-4--4-4-4-4-4-4-4-4-4-4-4-4--4-4-4-4-4-4-4-4-4-4-4-4--4-4-4-4-4-4-|
|-----------------------------------------------------------------------------------------------------|
|-----------------------------------------------------------------------------------------------------|

And you can find the world..
|-----------------------------------------------------------|
|-2---2---4-4-4-4-4-4--4-4-4-4-4-4-4-4-4-4-4-4--4-4-4-4-4-4-|x
|-----------------------------------------------------------|
|-----------------------------------------------------------|

They know what you did today..
|-----------------------------------------------------------------------------------------------------|
|-4-4-4-4-4-4--4-4-4-4-4-4-4-4-4-4-4-4--4-4-4-4-4-4-4-4-4-4-4-4--4-4-4-4-4-4-4-4-4-4-4-4--4-4-4-4-4-4-|x
|-----------------------------------------------------------------------------------------------------|
|-----------------------------------------------------------------------------------------------------|

And when they send you mail..
|-------------------|
|-2*-------0*---0*--|x
|-----0*------------|
|-------------------|

Bridge:
They know your life..
|--------------------------------------------------------|
|-2-2*---4-4-4-4-4-4-4-4-4-4-4-4-4-4-4---4-4-4-4---4-4---|
|--------------------------------------------------------|
|--------------------------------------------------------|

They build your life..
|----------------|
|-2*--2*--0*--0*-|
|----------------|
|----------------|

Chorus: (Many Times)
Know what you like and know what you yearn..
|-----------------------------------|
|-0*---------------0*-----------2*--|
|-----0*---4*-----------0*---4*-----|
|-------------2*--------------------|

Verse:
Caught in the web again..
|-----------------------------------------------------------------------------------------------------|
|-4-4-4-4-4-4--4-4-4-4-4-4-4-4-4-4-4-4--4-4-4-4-4-4-4-4-4-4-4-4--4-4-4-4-4-4-4-4-4-4-4-4--4-4-4-4-4-4-|
|-----------------------------------------------------------------------------------------------------|
|-----------------------------------------------------------------------------------------------------|

Where you can go to moon..
|-----------------------------------------------------------|
|-2---2---4-4-4-4-4-4--4-4-4-4-4-4-4-4-4-4-4-4--4-4-4-4-4-4-|x
|-----------------------------------------------------------|
|-----------------------------------------------------------|
[ Tab from: http://www.guitartabs.cc/tabs/s/sonata_arctica/blank_file_btab.html ]
You are a file in their..
|-----------------------------------------------------------------------------------------------------|
|-4-4-4-4-4-4--4-4-4-4-4-4-4-4-4-4-4-4--4-4-4-4-4-4-4-4-4-4-4-4--4-4-4-4-4-4-4-4-4-4-4-4--4-4-4-4-4-4-|x
|-----------------------------------------------------------------------------------------------------|
|-----------------------------------------------------------------------------------------------------|

You're a slave among..
|--------------|
|-2*-------0*--|
|-----0*-------|
|--------------|

Bridge:
They know your life..
|-------------------------------------------------------|
|-2-2*---4-4-4-4-4-4-4-4-4-4-4-4-4-4-4---4-4-4-4---4-4--|
|-------------------------------------------------------|
|-------------------------------------------------------|

They build your life..
|-------------|
|-2*-----0*---|
|-------------|
|-------------|

Chorus:
Know what you like and know what you yearn..
|----------------------------------|
|-0*---------------0*-----------2*-|
|-----0*---4*-----------0*---4*----|
|-------------2*-------------------|

|------------------------------------------|
|-0*------------------------------------2*-|
|-----0*---4*------------4*-5*---0*--4*----|
|-------------2*--2-4-5--------------------|

Solos:
|------------------------------------------------------------------------------------|
|------------------------------------------------------------------------------2--2--|
|---4-4-4-4-4-4--4-4-4-4-4-4-2-2-2-2-2-2--2-2-2-2-2-2-4-4-4-4-4-4--4-4-4-4-4-4-------| 
|------------------------------------------------------------------------------------|

|----------------------------------------------------------------|
|----------------------------------------------------------------|
|-4-4-4-4-4-4--4-4-4-4-4-4-2-2-2-2-2-2--2-2-2-2-2-2-7---6--4--2--| (x3)
|----------------------------------------------------------------|

Solo 2:
|---------------------------|
|---------------------------|
|---0------2--0---4--0---2--| (x6)
|-------0-------------------|

                Oh oh oh....   
|-------------------------------|
|-4---0---0--0---4---0---0--0---|
|-------------------------------|
|-------------------------------|

Chorus:
Know what you like and know what you yearn..
|-----------------------------------|
|-0*---------------0*-----------2*--|
|-----0*---4*-----------0*---4*-----|
|-------------2*--------------------|

I am waiting.. (* = Many Times)
|---------------------------------------------------|
|------4*---2*-------------4*---4-------------------|
|-2*-------------0*---2*----------6-5-6-5-3-5-------|
|---------------------------------------------6-3-5-|

I'm not like thee..
|-------------------------------------------------------------------------------------------------|
|-0-0-0-0-0-0-------------------------------------0-0-0-0-0-0-------------------------2-2-2-2-2-2-|
|-------------0-0-0-0-0-0-4-4-4-4-4-4-------------------------0-0-0-0-0-0-4-4-4-4-4-4-------------|
|-------------------------------------2-2-2-2-2-2-------------------------------------------------|

Chorus:
Know what you like and know what you yearn..
|--------------------------------|
|-0*--------------0*----------2*-|
|-----0*--4*-----------0*--4*----|
|------------2*------------------|

Oh oh...
|---------------------------------|
|---------------------------------|
|-----3*------0*------3*------0*--|
|-1*------0*------1*-------0*-----|

I'm not like thee..
|-----------------------------------|
|-----------------------------------|
|-----4*------1*-----4*-----0*--1~~-|
|-2*------1*------2*-----1*---------|

Comments