Son Of Sam - Michael Chords & Tabs

 

Michael Chords & Tabs

Son Of Sam Chords & Tabs

Version: 2 Type: Tab 0 ratings
1 star 2 stars 3 stars 4 stars 5 stars
comments

Michael Tab

------------------------------------------------------------------------------- 
MICHAEL - Son Of Sam 
------------------------------------------------------------------------------- 

By:fyppunk817-drew 

let ring throughout~ 
bend up whole way^ 

*intro-dont know if bass or guitar-sounds cool either way 
e|---------------------------------------------------------------------------| 
B|---------------------------------------------------------------------------| 
G|---------------------------------------------------------------------------| 
D|---8---8------6---7--------------------------------------------------------| 
A|-6----6-6---4----4---------------------------------------------------------| 
E|---------------------------------------------------------------------------| 

*verse 
e|-6-6-6-6-6-6-4-4-4-4-4-4---------------------------------------------------| 
B|-6-6-6-6-6-6-4-4-4-4-4-4---------------------------------------------------| 
G|-8-8-8-8-8-8-6-6-6-6-6-6---------------------------------------------------| 
D|-8-8-8-8-8-8-6-6-6-6-6-6---------------------------------------------------| 
A|-6-6-6-6-6-6-4-4-4-4-4-4---------------------------------------------------| 
E|-6-6-6-6-6-6-4-4-4-4-4-4---------------------------------------------------| 

*chorus-i think he uses a flanger pedal 
e|-6-~-----------------------------------------------------------------------| 
B|---7-~-------4~----2~-6~---------------------------------------------------| 
G|-----8-~---4~----3~-----6~-------------------------------------------------| 
D|---------4~----4~---------8~-----------------------------------------------| 
A|---------------------------------------------------------------------------| 
E|---------------------------------------------------------------------------| 
[ Tab from: http://www.guitartabs.cc/tabs/s/son_of_sam/michael_tab_ver_2.html ]
*after chorus-bend slowly al the way up-this is with flanger too i think...... 
e|--------^------------------------------------------------------------------| 
B|-----^---------------------------------------------------------------------| 
G|--6^-----------------------------------------------------------------------| 
D|---------------------------------------------------------------------------| 
A|---------------------------------------------------------------------------| 
E|---------------------------------------------------------------------------| 

*part before outro-i guess prechorus 
e|---------------------------------------------------------------------------| 
B|---------------------------------------------------------------------------| 
G|---------------------------------------------------------------------------| 
D|-6-4-6---6-4-6--4-4-4-44-4-4-4(x2)--6-4-6---6-4-6-6-6-6-6-6-6-7-7-7-7-7-7--| 
A|-6-4-6---6-4-6--4-4-4-44-4-4-4------6-4-6---6-4-6-4-4-4-4-4-4-5-5-5-5-5-5--| 
E|-4-2-4---4-2-4--2-2-2-22-2-2-2------4-2-4---4-2-4--------------------------| 
pm............. 

*outro-bend all the way up on 15 or it wont sound right 
e|-11^---14p11--14p11--14p11--14p11-11^--------------------------------------| 
B|-15^--------11-----11-----11------15^--------------------------------------| 
G|---------------------------------------------------------------------------| 
D|---------------------------------------------------------------------------| 
A|---------------------------------------------------------------------------| 
E|---------------------------------------------------------------------------| 

badass song-im pretty sure this is 100% correct-i didnt put it all together cuz 
its not hard to figure out dummy-comments,death treats-im at fyppunk817@aol.com 
===============================================================================
Comments